Oops, an error
Loading. Please wait.

Youre True Tab

31 views 1 this week
no commentswrite comment
1 2 3 4 5
3 more votes to show rating
add to favorites
launch autoscroll
font size
0
reset
how to read this tab
guitar tuner
Autoscroll
slow
fast
+/-
esc
set tempo
stop
Help us to improve Ultimate-Guitar.com Take our survey!
×
Author
Difficulty
Capo
novice
5th fret
About this tab version
You can play that either on the ukulele or on guitar with capo on 5th, using only the three upper strings. Was this info helpful? Yes No

[Intro]

e|---3--3--3----3--3--3---3--3---------------------------------------------------------------------------|
B|---3--5--1----3--5--1---3--5---------------------------------------------------------------------------|
G|-------------------------------------------------------------------------------------------------------|
D|-------------------------------------------------------------------------------------------------------|3x
A|-------------------------------------------------------------------------------------------------------|
E|-------------------------------------------------------------------------------------------------------|

                                      Strumming

e|---3--3--3----3--3--3---3--3--------3----3-3-3-3---3-3-3-----------------------------------------------|
B|---3--5--1----3--5--1---3--0--------1----1-1-1-1---0-0-0-----------------------------------------------|
G|-------------------------------------------------------------------------------------------------------|
D|-------------------------------------------------------------------------------------------------------|
A|-------------------------------------------------------------------------------------------------------|
E|-------------------------------------------------------------------------------------------------------|

[Verse]


Lonely cliffs and...

e|--3-----3-3-3-3---3--3-3--------------------------------------------------------------------------------|
B|--1-----1-1-1-1---0--0-0--------------------------------------------------------------------------------|
G|--------------------------------------------------------------------------------------------------------|
D|--------------------------------------------------------------------------------------------------------|  
A|--------------------------------------------------------------------------------------------------------|
E|--------------------------------------------------------------------------------------------------------|


You could be the one to...

e|----3-3-3-3-3-3--3-3---3-3-3-3-3-3--3-3--3-3-3-3-3-3--3-3--3-3-3---3-3-3-3-3----------------------------|
B|----3-3-3-3-3-3--3-3---4-4-4-4-4-4--4-4--5-5-5-5-5-5--5-5--6-6-6---6-6-6-6-6----------------------------|
G|----0-0-0-0--0-0--0-0---0-0-0-0-0-0--0-0--0-0-0-0-0-0--0-0--0-0-0---0-0-0-0-0---------------------------|
D|--------------------------------------------------------------------------------------------------------|
A|--------------------------------------------------------------------------------------------------------|
E|--------------------------------------------------------------------------------------------------------|


So please....

e|----6--6-6---6--6-6--6------8--8-8---8--8-8--8------------3--3-3-3-3--3-3-3----3--3-3-3-3--3--3-3-------|
B|----5--5-5---5--5-5--5------5--5-5---5--5-5--5------------1--1-1-1-1--0-0-0----1--1-1-1-1--0--0-0-------|
G|----5--5-5---5--5-5--5------5--5-5---5--5-5--5----------------------------------------------------------|
D|--------------------------------------------------------------------------------------------------------|
A|--------------------------------------------------------------------------------------------------------|
E|--------------------------------------------------------------------------------------------------------|


I`d be indebted to ya....

e|---2--2-2--2--2-2--2--2---2--2-2--2--2-2--2--2-----3--3-3---3--3-3---3--3---3--3-3---3--3-3---3--3------|
B|---0--0-0--0--0-0--0--0---0--0-0--0--0-0--0--0-----5--5-5---5--5-5---5--5---4--4-4---4--4-4---4--4------|
G|---2--2-2--2--2-2--2--2---1--1-1--1--1-1--1--1-----0--0-0---0--0-0---0--0---0--0-0---0--0-0---0--0------|
D|--------------------------------------------------------------------------------------------------------|
A|--------------------------------------------------------------------------------------------------------|
E|--------------------------------------------------------------------------------------------------------|


If you say the word...

e|-3---3-3----3--3-3---3--3----3--3-3---3--3-3---3--3----3--3-3---3--3-3----3---3--3--3-3--3---3-3--3--3--|
B|-3---3-3----3--3-3---3--3----2--2-2---2--2-2---2--2----1--1-1---1--1-1----1---1--1--1-1--1---1-1--1--1--|
G|-0---0-0----0--0-0---0--0----0--0-0---0--0-0---0--0----0--0-0---0--0-0----0---0--0--0-0--0---0-0--0--0--|
D|--------------------------------------------------------------------------------------------------------|
A|--------------------------------------------------------------------------------------------------------|
E|--------------------------------------------------------------------------------------------------------|


Oh sure...

e|----2--2-2---2--2-2---2-2------5--5-5----5--5-5----5-5--------------------------------------------------|
B|----3--3-3---3--3-3---3-3------3--3-3----3--3-3----3-3--------------------------------------------------|
G|----2--2-2---2--2-2---2-2------2--2-2----2--2-2----2-2--------------------------------------------------|
D|--------------------------------------------------------------------------------------------------------|
A|--------------------------------------------------------------------------------------------------------|
E|--------------------------------------------------------------------------------------------------------|


repeat for next verse and improvise the Stürmung pattern 

[outro]



************************************

| x   Dead note
| g   Grace note
| (n) Ghost note
| h   Hammer-on
| p   Pull-off
| r   Release
| >   Accented note
| t   Tapping
| b   Bend
| br  Bend release
| pb  Pre-bend
| pbr Pre-bend release
| /   Slide up
| \   Slide down
| ~   Vibrato
| s   Slap
| P   Pop
| PM  Palm mute
| TR  Trill
| N   Tremolo

************************************
Suggest correction
Give kudos to tab author, rate the tab!
1 2 3 4 5
comments
print report bad tab
guest
You may want to rate the tab now too:
select rating
Wanna post a correction for this tab? Suggest correction