Oops, an error
Loading. Please wait.

Its A Sin Chords

version 3
version 3

Whole song

247 views 12 this week
no commentswrite comment
1 2 3 4 5
x 4
add to favorites
launch autoscroll
font size
0
reset
transpose
0
reset
simplify chords
display chords
guitar tuner
Autoscroll
slow
fast
+/-
esc
set tempo
stop
Author
About this tab version
Explain why your version is different. Was this info helpful? Yes No
Strumming
There is no strumming pattern for this song yet. and get +5 IQ
SONG:   IT'S A SIN
ARTIST: EDDY ARNOLD
TAB BY: DON CZARSKI
EMAIL:  GUITARZAN7@HOTMAIL.COM


                IT'S A SIN
                EDDY ARNOLD


INTRO:

   F  F Bb Bb F  F F  F Bb
E --------------------8-6--
B -10-11-6--6-10-6-10-8-6--
G -10-11-7--7-10-7-10------
D -------------------------
A -------------------------
E -------------------------


CHORUS:
F7     Bb                    Eb
It's a sin my darling how I love you
           Bb                     F7
Because I know our love can never be

       Bb                      Eb
It's a sin to keep this memory of you
              Bb          F7              Bb
When silence proves that you've forgotten me


BREAK:
    Eb                        Bb
The dream I built for us has tumbled
      F              C7      F
Each promise broken like my heart


CHORUS:
F7     Bb                    Eb
It's a sin my darling how I love you
            Bb      F7           Bb
So much in love and yet so far apart


INSTRUMENTAL:
Bb Eb   Bb
Bb F    F C F   C F       
C Bb    Eb Eb
Eb  Bb  Am F Bb

                    - OR PLAY -

SOLO:

E -----------------------|-7-8------------------------|
B -6-8-10-11---8-11-8-6--|-----10---------8-6--6-5----|
G -----------8-----------|--------10----9----------8--|
D -----------------------|-----------10---------------|
A -----------------------|----------------------------|
E -----------------------|----------------------------|

E -8-10-6-----------------|------------------------|
B --------6----------11-8-|-8-10-11-6--------------|
G ----------7-----10------|-----------7-8-5-7-5-3--|
D ------------8-8---------|------------------------|
A ------------------------|------------------------|
E ------------------------|------------------------|


CHORUS:
       Bb                       Eb
It's a sin to hide behind this heartache
           Bb                           F7
To make believe that I've found someone new

       Bb                      Eb
It's a sin to say that I don't miss you
             Bb       F7                Bb
When people know I'm still in love with you


BREAK:
    Eb                       Bb
I'm sure you're happy with another
      F         C7              F
Who shares the love I couldn't win


OUTRO:
F7     Bb                         Eb
Why pretend that I can't live without you
             Bb     F7              Bb  
When deep inside I know that it's a sin

(Bb slide up to Eb) - then strum Bb
Suggest correction
comments
print report bad tab
guest
You may want to rate the tab now too:
select rating
Wanna post a correction for this tab? Suggest correction