Oops, an error
Loading. Please wait.

The Manual tab

1,204 views 66 this week
no commentswrite comment
1 2 3 4 5
3 more votes to show rating
add to favorites
×
Save as Personal and add changes to this tab that will be seen only by you. Learn more ›
×
You can save this tab as Personal to edit and correct it or add notes. All changes will be seen only by you. Learn more »
launch autoscroll
font size
0
reset
how to read this tab
guitar tuner
edit
Autoscroll
slow
fast
+/-
esc
set tempo
stop
Author
Difficulty
About this tab version
Instead of just the chords, it is tabbed out so it is easier than working out the picking pattern from the chords names. Some of the chords are in positions you might not expect so it might be easier to just use the tab for it. Was this info helpful? Yes No
Tab came from two YouTube videos
https://www.youtube.com/watch?v=-CfzFXb-WPE
https://www.youtube.com/watch?v=8j8qSJRGhTE

[Intro]
e|-----x--------x----0------+12---------|--x--------x---------x----0---------------|
B|-3---x----3---x----6------------------|--x---3----x----3----x----6---------------|
G|-2---x----0---x----5----------+7------|--x---2----x----0----x----5---------------|
D|-3---x----2---x----0---------------+7-|--x---3----x----2----x----0---------------|
A|-1---x----3---x-----------------------|--x---1----x----3----x--------------------|
E|-----x--------x-----------------------|--x--------x---------x--------------------|


[Verse]
budeureopge mudeuitge...

e|-----x-------x---0---x---------3h5---|-------x-------x--------x----------------|
B|-3---x---3---x---6---x---3h4---4-----|---3---x---3---x--------x--5h7-----------|
G|-2---x---0---x---5---x---3-----5-----|---2---x---0---x--------x--6-------------|  x2
D|-3---x---2---x---0---x---5-----3-----|---3---x---2---x--5--4--x--7-------------|
A|-1---x---3---x-------x---3-----------|---1---x---3---x--5--5--x--5-------------|
E|-----x-------x-------x---------------|-------x-------x--------x----------------|


[Pre-Chorus]
geunal achimen meonjeo ireonaseo...

e|-------------8--x-----0---x---0---x--|-------10-x-----8--x-------8-x---------x-------|
B|---6---5---8----x---3-----x---6---x--|--10h11---x--8-----x---8h10--x--8h10---x-------|
G|---7---5---8----x---2-----x---5---x--|--10------x--8h9---x---9-----x--9------x-------|
D|---7---5---8----x---3-----x---0---x--|--12------x--8-----x---10----x--10-----x-------|
A|----------------x---1-----x-------x--|--10------x--------x---8-----x--8------x-------|
E|---6---5---8----x---------x-------x--|----------x--8-----x---------x---------x-------|

neomu jichil ttaen...

e|-------------10-x------0--x---0---x--|-----4------3-----------x---x-------------|
B|---6---5---8----x---3-----x---6---x--|--4h6----3h4----------1-x-1-x--2---2-2----|
G|---7---5---8----x---2-----x---5---x--|--5------3----------2---x-2-x--2---2-2----|
D|---7---5---8----x---3-----x---0---x--|--6------5--------3-----x-3-x-------------|
A|----------------x---1-----x-------x--|--4------3--------------x---x-------------|
E|---6---5---8----x---------x-------x--|----------------1-------x-1-x----1--------|


[Chorus]
gakkeum han beonssik mujakjeong...

e|--------------------------------------------x-----|-----x-----3-x----------x---x-----------------|
B|-------6-----------5------------3-------1---x--1--|--3--x--3h5--x--------1-x-1-x--2---2-2--------|
G|-----7---7-------5---5--------3---3-----2---x--2--|--3--x--3----x------2---x-2-x--2---2-2--------| x2
D|---7-----------5------------3-----------3---x--3--|--3--x--5----x----3-----x-3-x-----------------|
A|--------------------------------------------x-----|-----x--3----x----------x---x-----------------|
E|-6-----------5------------3-------------1---x--1--|--3--x-------x--1-------x-1-x----1------------|


[Verse]
jal ttaeneun nageutage joyonghage...

e|-----x-------x---0---x---------3h5---|-------x-------x---------x----------------|
B|-3---x---3---x---6---x---3h4---4-----|---3---x---3---x---------x--5h7-----------|
G|-2---x---0---x---5---x---3-----5-----|---2---x---0---x---------x--6-------------|  x2
D|-3---x---2---x---0---x---5-----3-----|---3---x---2---x---5--4--x--7-------------|
A|-1---x---3---x-------x---3-----------|---1---x---3---x---5--5--x--5-------------|
E|-----x-------x-------x---------------|-------x-------x---------x----------------|


[Pre-Chorus]
geunal achimen...

e|-------------8--x-----0---x---0---x--|-------10-x-----8--x-------8-x--------x--------|
B|---6---5---8----x---3-----x---6---x--|--10h11---x--8-----x---8h10--x--8h10--x--------|
G|---7---5---8----x---2-----x---5---x--|--10------x--8h9---x---9-----x--9-----x--------|
D|---7---5---8----x---3-----x---0---x--|--12------x--8-----x---10----x--10----x--------|
A|----------------x---1-----x-------x--|--10------x--------x---8-----x--8-----x--------|
E|---6---5---8----x---------x-------x--|----------x--8-----x---------x--------x--------|

baraedajul ttaen...

e|-------------10-x------0--x---0---x--|-----4------3-----------x---x-------------|
B|---6---5---8----x---3-----x---6---x--|--4h6----3h4----------1-x-1-x--2---2-2----|
G|---7---5---8----x---2-----x---5---x--|--5------3----------2---x-2-x--2---2-2----|
D|---7---5---8----x---3-----x---0---x--|--6------5--------3-----x-3-x-------------|
A|----------------x---1-----x-------x--|--4------3--------------x---x-------------|
E|---6---5---8----x---------x-------x--|----------------1-------x-1-x----1--------|


[Chorus]
dareun yeoja apeseon iseongjeogijiman...

e|--------------------------------------------x-----|-----x-----3-x----------x---x-----------------|
B|-------6-----------5------------3-------1---x--1--|--3--x--3h5--x--------1-x-1-x--2---2-2--------|
G|-----7---7-------5---5--------3---3-----2---x--2--|--3--x--3----x------2---x-2-x--2---2-2--------|
D|---7-----------5------------3-----------3---x--3--|--3--x--5----x----3-----x-3-x-----------------|
A|--------------------------------------------x-----|-----x--3----x----------x---x-----------------|
E|-6-----------5------------3-------------1---x--1--|--3--x-------x--1-------x-1-x----1------------|

neol sayonghagien neomuna akkawo...

e|---------------------------------------|-------------------|
B|-------6-----------5-------------5-----|-------------------|
G|-----7---7-------5---5---------5---5---|---5---7-----------|
D|---7-----------5-------------5---------|---4---7-----------|
A|---------------------------------------|---5---5-----------|
E|-6-----------6-------------5-----------|-------------------|


[Bridge]
manyang barabogien neon...

    START STRUMMING - listen to song for pattern
e|-----------------------------|---------------|---------------|-----------|-------|
B|----3----6--6----6----10--10-|--11----11--11-|-6-6--6-6-6-6--|--5--------|--5----|
G|----3----5--5----7----9---9--|--10----10--10-|-7-7--7-7-7-7--|--7--------|--3----|
D|----3----5--5----7----9---9--|--8-----8---8--|-8-8--8-8-8-8--|--8--------|--5----|
A|----5----5--5----------------|---------------|---------------|-----------|--4----|
E|----3----5--5----6----9---9--|--10----9---9--|-8-8--8-8-8-8--|--8--------|-------|


[Verse]
budeureopge mudeuitge...

e|-----x-------x---0---x---------3h5---|-------x-------x---------x----------------|
B|-3---x---3---x---6---x---3h4---4-----|---3---x---3---x---------x--5h7-----------|
G|-2---x---0---x---5---x---3-----5-----|---2---x---0---x---------x--6-------------| 
D|-3---x---2---x---0---x---5-----3-----|---3---x---2---x---5--4--x--7-------------|
A|-1---x---3---x-------x---3-----------|---1---x---3---x---5--5--x--5-------------|
E|-----x-------x-------x---------------|-------x-------x---------x----------------|


[Outro]
e|---0-1----0----------------------------------------------------|
B|-3--------1-1----------------1---------------------------------|
G|-2--------0-------3----3-----0h2-------------------------------|
D|-3--------2-------3--3-------2---------------------------------|
A|-1--------0----------------------------------------------------|
E|------------------3----------1---------------------------------|

jal ttaeneun nageutage...

e|-----x-------x---0---x---------3h5---|-------x-------x---------x----------------|
B|-3---x---3---x---6---x---3h4---4-----|---3---x---3---x---------x--5h7-----------|
G|-2---x---0---x---5---x---3-----5-----|---2---x---0---x---------x--6-------------|
D|-3---x---2---x---0---x---5-----3-----|---3---x---2---x---5--4--x--7-------------|
A|-1---x---3---x-------x---3-----------|---1---x---3---x---5--5--x--5-------------|
E|-----x-------x-------x---------------|-------x-------x---------x----------------|

i areumdaun girl nochiji masio

e|-------------------------------|
B|-3---x---3---x---------x--5h7--|
G|-2---x---0---x---------x--6----|
D|-3---x---2---x---5--4--x--7----|
A|-1---x---3---x---5--5--x--5----|
E|-------------------------------|



************************************

| x  Dead note
| h  Hammer-on
| +  Harmonic
 

************************************

            
            
Suggest correction
Creating personal tab
Creating personal tab
You can edit any tab online and save it as your Personal.

You can edit, replace or remove any tab part or add personal notes – all changes will be seen only by you.

Personal tabs can be accessed anytime from any device, even offline.
Learn more »
Give kudos to tab author, rate the tab!
1 2 3 4 5
comments
print report bad tab
guest
You may want to rate the tab now too:
select rating
Wanna post a correction for this tab? Suggest correction