Oops, an error
Loading. Please wait.

Amnesia Chords

by Eden
1,735 views 90 this week
1 commentread comment
1 2 3 4 5
x 8
add to favorites
launch autoscroll
font size
0
reset
transpose
0
reset
display chords
guitar tuner
Autoscroll
slow
fast
+/-
esc
set tempo
stop
Help us to improve Ultimate-Guitar.com Take our survey!
×
Author
Difficulty
intermediate
About this tab version
This tab and lyrics have been made by ear done as well as it could be. Was this info helpful? Yes No
[Intro]
e|----------------------------------------------------------------------|
B|----------------------------------------------------------------------|
G|-6----4/7----6\2--------------------6----4/7----6\2----1/11-----------|
D|----------------------------------------------------------------------| x2
A|----------------------------------------------------------------------|
E|-5----4/7----5\2--------------------5----4/7----5\2----0/10-----------|

[Chorus 1]
Just one second now is all i ask for,just one star between us, and just a moment now, for some perfect clarity
e|----------------------------------------------------------------------|
B|----------------------------------------------------------------------|
G|-6----4/7----6\2--------------------6----4/7----6\2----1/11-----------|
D|----------------------------------------------------------------------| x2
A|----------------------------------------------------------------------|
E|-5----4/7----5\2--------------------5----4/7----5\2----0/10-----------|

And i swore to god that i wouldn't cry, and i swore i can't see how it's anything more than a lie
e|---------------------------------|
B|-7------10-----9-----------------|
G|---------------------------------|
D|---------------------------------| x2
A|-6------9------7-----------------|
E|---------------------------------|

[Verse 1]
            D   F#m         A            E
And all the years,  I wont ever let them go.
       D   F#m               A            E
All my fears. They bring me down, down so low.
                      D          F#              A                    E
And i'll be missing you for a life time, but 18 years are better than none
           D       F#m            E
Until the time comes for me to turn to dust.


[Bridge]
D F# A E D F# A E
Ooooohh


[Verse 2]
A                       Bm                        F#m
    So i'll get on fine, it's like shes inside out, I've always found it easy.
A                                Bm                          A        F#m                         E     D
    To hide these thought of mine, like a lapsing state of mind, i'll sing 'till my though can't find me.

[Chorus 2]
And i swore to god that i would't cry.
e|---------------------------------|
B|-7------10-----9-----------------|
G|-7------11-----9-----------------|
D|-7------11-----9-----------------|
A|-5------9------7-----------------|
E|---------------------------------|

And i swore, i can't see how it's anything more than a lie.
e|---------------------------------|
B|-7------10-----9-----------------|
G|-7------11-----9-----------------|
D|-7------11-----9-----------------|
A|-5------9------7-----------------|
E|---------------------------------|

[Verse 3]
            D  F#m        A            E
And all the years. I wont ever let them go.
       D  F#m                A            E
All my fears. They'll break me down, down so low
                      D         F#m              A                    E
And i'll be missing you for a life time, but 18 years are better than none
           D      F#m             A      E
Until the time comes for me to turn, to turn.
            D          F#m                A  E
And we all hurt, and time heals nothing at all.
       D                  F#m             A          E
Decisions made, and they cut me off from all i ever know.
              D              F#m            A                                    E
Now i can't think, i can't breathe, i can't be who i want to with this weight on me.
     D                                  A            E
Amnesia, it's selected amnesia to keep you away from me.
                      D         F#               A                    E
And i'll be missing you for a life time, but 18 years are better than none
           D      F#m             E
Until the time comes for me to turn to dust.

[Outro]
D F# A E D F# A E
Ooooohh   
Suggest correction
comments
print report bad tab
1 comment total.
+1 reply
tenaciousaudaciousnessness21 10 Oct 30, 2016 02:05 PM

And i swore to god that i wouldn't cry, and i swore i can't see how it's anything more than a lie
e|---------------------------------|
B|-7------10-----9-----------------|
G|---------------------------------|
D|---------------------------------| x2
A|-5------9------7-----------------|
E|---------------------------------|

sounds better with a 5 on the A string

guest
You may want to rate the tab now too:
select rating
Wanna post a correction for this tab? Suggest correction