Oops, an error
Loading. Please wait.

Circles Tab

by Eden
1,150 views 99 this week
no commentswrite comment
1 2 3 4 5
x 5
add to favorites
launch autoscroll
font size
0
reset
how to read this tab
guitar tuner
Autoscroll
slow
fast
+/-
esc
set tempo
stop
Help us to improve Ultimate-Guitar.com Take our survey!
×
Author
Difficulty
advanced
About this tab version
This version includes full riffs and chords that EDEN plays from the original song. Was this info helpful? Yes No
In each part of the song, there are a riff part and a lyrics part. Those 2 parts will 
match together through
chords.


[Intro]
   Bm             F#m                        G           Em
e|---10---10---10----------------------------------------------------------------|
B|------------------10---10---10---10---10---14--14--14----8---8---8--8\7---7----|
G|-------------------------------------------------------------------------------|
D|-9----9----9-------------------------------------------------------------------|
A|----------------9----9----9----9----9-----12--12--12---7---7---7-----\5-5------|
E|-------------------------------------------------------------------------------|
   Bm             F#m                        G           Em
e|---10---10---10----------------------------------------------------------------|
B|------------------10---10---10---10---10---14--14--14----8---8---8--8\7---7----|
G|-------------------------------------------------------------------------------|
D|-9----9----9-------------------------------------------------------------------|
A|----------------9----9----9----9----9-----12--12--12---7---7---7-----\5-5------|
E|-------------------------------------------------------------------------------|

[Verse]
   Bm             F#m                        G           Em
e|---10---10---10----------------------------------------------------------------|
B|------------------10---10---10---10---10---14--14--14----8---8---8--8\7---7----|
G|-------------------------------------------------------------------------------|
D|-9----9----9-------------------------------------------------------------------|  x3
A|----------------9----9----9----9----9-----12--12--12---7---7---7-----\5-5------|
E|-------------------------------------------------------------------------------|
   Bm             F#m                        G           Em
e|---10---10---10----------------------------------------------------------------|
B|------------------10---10---10---10---10---14--14--14----12---12---12---12---12|
G|-------------------------------------------------------------------------------|
D|-9----9----9-------------------------------------------------------------------|
A|----------------9----9----9----9----9-----12--12--12---10---10---10---10---10--|
E|-------------------------------------------------------------------------------|

Bm        F#m         G        Em
If I told you how the story ends
          Bm           F#m      G     Em
Would you change every step you take?
       Bm      F#m     G        Em
And if i could relive all of my days
    Bm        F#m     G     Em
I'd live them all the same

[Pre chorus]
   Em             D                        A
e|-------------------------------------------------------------------------------|
B|-------------------------------------------------------------------------------|
G|-12---12---12---11---11---11---11---11---6---6---6---6---6---6---6---6---------|
D|-------------------------------------------------------------------------------|
A|-------------------------------------------------------------------------------|
E|-12---12---12---10---10---10---10---10---5---5---5---5---5---5---5---5---------|
   Bm          F#m                 G
e|-------------------------------------------------------------------------------|
B|-------------------------------------------------------------------------------|
G|-2---2---2---7---7---7---7---7---4---4---4---4---4---4---4---4-----------------|
D|-------------------------------------------------------------------------------|
A|-------------------------------------------------------------------------------|
E|-2---2---2---7---7---7---7---7---3---3---3---3---3---3---3---3-----------------|
   Em             D                        A
e|-------------------------------------------------------------------------------|
B|-------------------------------------------------------------------------------|
G|-12---12---12---11---11---11---11---11---6---6---6---6---6---6---6---6---------|
D|-------------------------------------------------------------------------------|
A|-------------------------------------------------------------------------------|
E|-12---12---12---10---10---10---10---10---5---5---5---5---5---5---5---5---------|
   Bm          F#m                 A
e|-------------------------------------------------------------------------------|
B|-------------------------------------------------------------------------------|
G|-2---2---2---7---7---7---7---7---6---6---6---6---6---6---6---6-----------------|
D|-------------------------------------------------------------------------------|
A|-------------------------------------------------------------------------------|
E|-2---2---2---7---7---7---7---7---5---5---5---5---5---5---5---5-----------------|

          Em      D    A
'cause I'm scared, of all that I don't know,
         F#m        Bm                     G
'cause I want it all but all of it ain't gold.
       Em      D       A
And I'm scared, but I know it's not for long
           F#m         Bm                   A
'cause I'm learning what I should've long before.

[Chorus]
   G                               Bm              A
e|-----------------------------------------------------------------|
B|-----------------------------------------------------------------|
G|-4-------------------------------7---------------6---------------|
D|-5-------------------------------9---------------7---------------| x3
A|-5-------------------------------9---------------7---------------|
E|-3-------------------------------7---------------5---------------|
   G                               D       Bm      A
e|-----------------------------------------------------------------|
B|-----------------------------------------------------------------|
G|-4-------------------------------11------7-------6---------------|
D|-5-------------------------------12------9-------7---------------|
A|-5-------------------------------12------9-------7---------------|
E|-3-------------------------------10------7-------5---------------|

  G                   Bm             A
That all we are, is a light into the darkness;
    G              Bm                   A
And all we are, is time that's counting down.
    G              Bm                  A         G
And all we are, is falling through the spaces in between;
D   Bm   A
Endless flight,

A lifetime in repeat.


[Drop]

Guitar 1
e|-10/12-12-12-14-14-14-14-14-14-14-14-14-------------|---------------------------------------------------|
B|----------------------------------------15-15-15-15-|-14-14-14-15-15-15-12-12-12-12-12-12-12-12-12-12---|
G|----------------------------------------------------|---------------------------------------------------|
D|----------------------------------------------------|---------------------------------------------------|
A|----------------------------------------------------|---------------------------------------------------|
E|----------------------------------------------------|---------------------------------------------------|

e|-10/12-12-12-14-14-14-------------------------------|---------------------------------------------------|
B|----------------------15-15-15-15-15-15-14-14-14-14-|-14-14-14-15-15-15-12-12-12-12-12-12-12-12-12-12---|
G|----------------------------------------------------|---------------------------------------------------|
D|----------------------------------------------------|---------------------------------------------------|
A|----------------------------------------------------|---------------------------------------------------|
E|----------------------------------------------------|---------------------------------------------------|

Guitar 2
   Bm             F#m                        G           Em
e|---10---10---10----------------------------------------------------------------|
B|------------------10---10---10---10---10---14--14--14----8---8---8--8\7---7----|
G|-------------------------------------------------------------------------------|
D|-9----9----9-------------------------------------------------------------------|
A|----------------9----9----9----9----9-----12--12--12---7---7---7-----\5-5------|
E|-------------------------------------------------------------------------------|
   Bm             F#m                        G           Em
e|---10---10---10----------------------------------------------------------------|
B|------------------10---10---10---10---10---14--14--14----8---8---8--8\7---7----|
G|-------------------------------------------------------------------------------|
D|-9----9----9-------------------------------------------------------------------|
A|----------------9----9----9----9----9-----12--12--12---7---7---7-----\5-5------|
E|-------------------------------------------------------------------------------|

[Verse 2]
   Bm             F#m                        G           Em
e|---10---10---10----------------------------------------------------------------|
B|------------------10---10---10---10---10---14--14--14----8---8---8--8\7---7----|
G|-------------------------------------------------------------------------------|
D|-9----9----9-------------------------------------------------------------------|  x3
A|----------------9----9----9----9----9-----12--12--12---7---7---7-----\5-5------|
E|-------------------------------------------------------------------------------|
   Bm             F#m                        G           Em
e|---10---10---10----------------------------------------------------------------|
B|------------------10---10---10---10---10---14--14--14----12---12---12---12---12|
G|-------------------------------------------------------------------------------|
D|-9----9----9-------------------------------------------------------------------|
A|----------------9----9----9----9----9-----12--12--12---10---10---10---10---10--|
E|-------------------------------------------------------------------------------|

                 Bm     F#m
But I still find solace
         G            Em            Bm           F#m
When you say that you know how I feel, when it's wrong
          G              Em
And we've been right for years

[Pre chorus]
   Em             D                        A
e|-------------------------------------------------------------------------------|
B|-------------------------------------------------------------------------------|
G|-12---12---12---11---11---11---11---11---6---6---6---6---6---6---6---6---------|
D|-------------------------------------------------------------------------------|
A|-------------------------------------------------------------------------------|
E|-12---12---12---10---10---10---10---10---5---5---5---5---5---5---5---5---------|
   Bm          F#m                 G
e|-------------------------------------------------------------------------------|
B|-------------------------------------------------------------------------------|
G|-2---2---2---7---7---7---7---7---4---4---4---4---4---4---4---4-----------------|
D|-------------------------------------------------------------------------------|
A|-------------------------------------------------------------------------------|
E|-2---2---2---7---7---7---7---7---3---3---3---3---3---3---3---3-----------------|
   Em             D                        A
e|-------------------------------------------------------------------------------|
B|-------------------------------------------------------------------------------|
G|-12---12---12---11---11---11---11---11---6---6---6---6---6---6---6---6---------|
D|-------------------------------------------------------------------------------|
A|-------------------------------------------------------------------------------|
E|-12---12---12---10---10---10---10---10---5---5---5---5---5---5---5---5---------|
   Bm          F#m                 A
e|-------------------------------------------------------------------------------|
B|-------------------------------------------------------------------------------|
G|-2-----------7-----------------------------------------------------------------|
D|---------------------------------strum the A chord madly-----------------------|
A|-------------------------------------------------------------------------------|
E|-2-----------7-----------------------------------------------------------------|

   Em  D            A
Let go, give these ghosts a new home;
      F#m                  Bm                  G
Let's bury our past and our fears and all these bones.
   Em    D             A
Let's go, I should've seen it long before;
                  F#m
'cause this is my life
           Bm
I will not run in circles
A
Ending where I start.

[Bridge]

   D
So hold on to me,

We'll burn out slowly.
    G
And feel our hearts leap

To words we don't mean:

[Chorus 2]

Bm
Love.

Means nothing to me,
A                             Em
'cause I don't know what it is.
                     G
I'm just dying to be
                               Bm
All that I've been dreaming of.
                    A
And words betray me,
                       Em
Contradict all I stand for;
                   G  Bm  A
But I'm still learning.
                    Em  G  A
Yeah I'm still learning.

[Chorus]
   G                               Bm              A
e|-----------------------------------------------------------------|
B|-----------------------------------------------------------------|
G|-4-------------------------------7---------------6---------------|
D|-5-------------------------------9---------------7---------------| x3
A|-5-------------------------------9---------------7---------------|
E|-3-------------------------------7---------------5---------------|
   G                               D       Bm      A
e|-----------------------------------------------------------------|
B|-----------------------------------------------------------------|
G|-4-------------------------------11------7-------6---------------|
D|-5-------------------------------12------9-------7---------------|
A|-5-------------------------------12------9-------7---------------|
E|-3-------------------------------10------7-------5---------------|

  G                   Bm             A
That all we are, is a light into the darkness;
    G              Bm                   A
And all we are, is time that's counting down.
    G              Bm                  A         G
And all we are, is falling through the spaces in between;
D   Bm   A
Endless flight,

We're falling to our knees

[Outro]

   D         F#m
e|-------2----------------|------------------------|
B|-------3-----------2----|-------2-----------2----|
G|----2-----2-----------2-|----------2-----------2-|
D|-0----------------------|----------------4-------| x2
A|----------------4-------|----4-------------------|
E|-----------0h2----------|------------------------|

   D         F#m
e|-------2----------------|------------------------|
B|-------3-----------2----|-------2--------2--2--3-|
G|----2-----2-----------2-|----------2-------------|
D|-0----------------------|----------------4-------|
A|----------------4-------|----4-------------------|
E|-----------0h2----------|------------------------|

   Bm          Em                       G                        F#m      G
e|------------------------|------------------------|------------------------|
B|-------3---3/5----------|------------------------|-------3-----------2----|
G|----4----4---------2----|-------0h2---------4----|-------------2--------3-|
D|--------------0h2-----2-|----------------5-----5-|-------------4--------5-|
A|-2----------------------|------------------------|------------------------|
E|-------------0----------|-------0h2---3----------|----3-----3--2--------3-|

                                        F#m      G                 A
e|------------------------|------------------------|------------------------|
B|-------3-----------5--3-|-5--3--------------2----|-------3----------------|
G|----------4-------------|-------------2--------3-|-------------4/6--------|
D|----5-------------------|-------------4--------5-|------------------------|
A|------------------------|------------------------|------------------------|
E|-3--------------3-------|-------------2--------3-|----3--------3/5--------|

               G
e|------------------------|
B|------------------------|
G|-------6h7p6-4----------|
D|------------------------|
A|------------------------|
E|----5--------3----------|

I love this song very much and I hope you also enjoy it too :)
Suggest correction
comments
print report bad tab
guest
You may want to rate the tab now too:
select rating
Wanna post a correction for this tab? Suggest correction