Oops, an error
Loading. Please wait.

Gravity Tab

by Eden
832 views 54 this week
no commentswrite comment
1 2 3 4 5
x 3
add to favorites
launch autoscroll
font size
0
reset
how to read this tab
guitar tuner
Autoscroll
slow
fast
+/-
esc
set tempo
stop
Help us to improve Ultimate-Guitar.com Take our survey!
×
Artist: Eden
Song: Gravity


[Verse 1]

"I wanted you to be the last thing on my mind..."
e|----10-----------10-----------10-----------10-----------10---------------------|
B|-------10-----------10-----------10-----------10-----------10------------------|
G|-------------------------------------------------------------------------------|
D|--9------------9------------9------------9------------9------------------------|
A|-------------------------------------------------------------------------------|
E|-------------------------------------------------------------------------------|

e|----9------------9------------9------------9------------9----------------------|
B|------10-----------10-----------10-----------10-----------10-------------------|
G|-------------------------------------------------------------------------------|
D|--7------------7------------7------------7------------7------------------------|
A|-------------------------------------------------------------------------------|
E|-------------------------------------------------------------------------------|

e|----7------------7------------7------------7------------7----------------------|
B|------8------------8------------8------------8------------8--------------------|
G|-------------------------------------------------------------------------------|
D|--5------------5------------5------------5------------5------------------------|
A|-------------------------------------------------------------------------------|
E|-------------------------------------------------------------------------------|

e|----3------------3------------3------------2------------2------------2---------|
B|------3------------3-------------------------3------------3--------------------|
G|-------------------------------------------------------------------------------|
D|--2------------2------------2------------0------------0-----------0------------|
A|-------------------------------------------------------------------------------|
E|-------------------------------------------------------------------------------|


"Became our downfall..."
e|--3---3---3---3---3---3---3---3-----7---7---7---7---7---7---7---7--------------|
B|--3---3---3---3---3---3---3---3-----8---8---8---8---8---8---8---8--------------|
G|-------------------------------------------------------------------------------|
D|--2---2---2---2---2---2---2---2-----5---5---5---5---5---5---5---5--------------|
A|-------------------------------------------------------------------------------|
E|-------------------------------------------------------------------------------|

e|--10--10--10--10--10--10--10--10----9---9---9---9---9---9---9---9--------------|
B|--10--10--10--10--10--10--10--10----10--10--10--10--10--10--10--10-------------|
G|-------------------------------------------------------------------------------|
D|--9---9---9---9---9---9---9---9-----7---7---7---7---7---7---7---7--------------|
A|-------------------------------------------------------------------------------|
E|-------------------------------------------------------------------------------|


[Chorus]

"But you can leave if you really want to..."
e|--3-/-5-/-7-------/10-----\9-----\3-----/5-----/7-----/10-----\9------|
B|--3-/-5-/-8-------/10-----\10----\3-----/5-----/8-----/10-----\10-----|
G|----------------------------------------------------------------------|
D|----------------------------------------------------------------------|
A|--2-/-4-/-5-------/9------\7-----\2-----/4-----/5-----/9------\7------|
E|----------------------------------------------------------------------|


[Verse 2]

Bm
so i been thinking that i think too much
A
and i cant sleep but i can dream of us
G
and ive been seeing shit like horror cuts
Em
its burning down, i gotta drown this out
Bm
and you said you need me to let this go
A              G
buts its who i am or am i just 

losing it
             Em                                           A   Bm
cos you said jump and i went first but falling's always been my downfall
              Em
cos you say i drink and i smoke and i talk too much
               G
but i know you lied when you said 
that you just gotta go and save 
F#m
yourself
                     D
so hear me out
                                          
you know everybody talks girl
G                                                
and it means nothing till you let it
Bm
but if you keep second guessing 
A
then theres only gonna be one end


[Chorus]

"But you can leave if you really want to..."
e|--3/5/7---|
B|--3/5/8---|
G|----------|
D|----------|
A|--2/4/5---|
E|----------|

e|------12--14--------12--14--12------|
B|--15------------15--------------15--|
G|------------------------------------|
D|------------------------------------|
A|------------------------------------|
E|------------------------------------|


[Outro]

"Defy gravity..."
e|--7-----7-----7-----7-----7-----7-----7-----7-----------|
B|-----8-----8-----8-----8-----8-----8-----8-----8--------|
G|--------------------------------------------------------|
D|--5-----------------------5-----------------------------|
A|--------------------------------------------------------|
E|--------------------------------------------------------|

e|--10------10------10------10------9-----------|
B|------10------10------10------10--------------|
G|----------------------------------------------|
D|--9-------------------------------7-----------|
A|----------------------------------------------|
E|----------------------------------------------|




************************************

| /   Slide up
| \   Slide down

************************************
Suggest correction
Give kudos to tab author, rate the tab!
1 2 3 4 5
comments
print report bad tab
guest
You may want to rate the tab now too:
select rating
Wanna post a correction for this tab? Suggest correction