Oops, an error
Loading. Please wait.

Rock And Roll tab

by Eden
82,597 views 1,401 this week
17 commentsread comments
1 2 3 4 5
x 89
add to favorites
×
Save as Personal and add changes to this tab that will be seen only by you. Learn more ›
×
You can save this tab as Personal to edit and correct it or add notes. All changes will be seen only by you. Learn more »
launch autoscroll
font size
0
reset
how to read this tab
guitar tuner
edit
Autoscroll
slow
fast
+/-
esc
set tempo
stop
About this tab version
Transcribed from EDEN's Periscope that was on the 22nd of August 2016. EDEN's guitar is tuned up about 1/4 in the periscope version but that was unintentional, the studio version is in Standard Tuning.
Use thumb to strum the E string and index to strum the G string throughout the song.

[Intro-0:00] (Clean guitar, using fingers to strum)
e|---------------------------------------------------------------------------|
B|---------------------------------------------------------------------------|
G|-----5---5---12---12---7---7---8---8---5---5---12---12---8\7---------------|
D|---------------------------------------------------------------------------|
A|---------------------------------------------------------------------------|
E|---4---4---11---11---6---6---8---8---4---4---11---11-----8\6---------------|

[Verse-0:16] 
Tell me this is who you are...
e|---------------------------------------------------------------------------|
B|---------------------------------------------------------------------------|
G|---8-----5-5--12-12-12--8-8-8-8-8h10p8\5--5-5--12-12-13p12-----------------|
D|---------------------------------------------------------------------------|
A|---------------------------------------------------------------------------|
E|---8----4-4--11-11-11--8-8-8-8-----------4-4--11-11------------------------|

[Pre Chorus-0:30] 
And, oh you could be loved...
e|---------------------------------------------------------------------------|
B|---------------------------------------------------------------------------|
G|--7-7-7-7-7--8-8--5-5-5--3-3--8-8-8--7-7-7-7-7-----------------------------|
D|---------------------------------------------------------------------------|
A|---------------------------------------------------------------------------|
E|-6-6-6-6-6--8-8--4-4-4--3-3--8-8-8--6-6-6-6-6------------------------------|

[Chorus-0:43] 
Swing like Sinatra...
e|---------------------------------------------------------------------------|
B|---------------------------------------------------------------------------|
G|---5--5---12--12---7--7---8--7---1--1---8--8\7--7--7--7--8-----------------|
D|---------------------------------------------------------------------------|
A|---------------------------------------------------------------------------|
E|-4--4---11--11---6--6---8--6---1--1---8--8----6--6--6--6-------------------|

e|---------------------------------------------------------------------------|
B|---------------------------------------------------------------------------|
G|---5--5---12--12---7--7---8--7---1--1---8--8\7--7--7--7--7-----------------|
D|---------------------------------------------------------------------------|
A|---------------------------------------------------------------------------|
E|-4--4---11--11---6--6---8--6---1--1---8--8----6--6--6--6--6----------------|

[Interlude-1:13] (Heavily distorted guitar, use plectrum to strum)
e|---------------------------------------------------------------------------|
B|----------------------------------8----------------------------------------|
G|-------------b10p8-----------/10-------------------------------------------|
D|------8h10---------10--8-10---------10--8----------------------------------|
A|--8h10---------------------------------------------------------------------|
E|----------8----------------------------------------------------------------|

e|---------------------------------------------------------------------------|
B|-----------------------11p8------------------------------------------------|
G|-------------b10p8---------10-b10p8----------------------------------------|
D|------8h10---------10-----------------------------13------8h10-------------|
A|--8h10------------------------------/11--11-11-13-----8h10-----------------|
E|----------8----------------------------------------------------------------|

[Verse-1:28] (Lightly distorted guitar, use fingers to strum)
So I got ten minutes...
e|---------------------------------------------------------------------------|
B|---------------------------------------------------------------------------|
G|--8-----7--7---5-------------8-8-8-8-8h10p8--5-5--12-12-13p12--------------|
D|----------------------8h10-------------------------------------------------|
A|------------------8h10-----------------------------------------------------|
E|--8-----6--6---4-----------8-8-8-8----------4-4--11-11---------------------|
                                              
e|---------------------------------------------------------------------------|
B|---------------------------------------------------------------------------|
G|---8-8-8-8-8h10p8--7-7---5-------------------------------------------------|
D|------------------------------------8h10-----------------------------------|
A|--------------------------------8h10---------------------------------------|
E|-8-8-8-8-----------6-6---4--------------8----------------------------------|


[Verse-1:49] (Lightly played in the backround)
But I don't think you understand me...
e|---------------------------------------------------------------------------|
B|---------------------------------------------------------------------------|
G|--8-8-8-8-8h10p8--5-5--12-12-13p12-----------------------------------------|
D|---------------------------------------------------------------------------|
A|---------------------------------------------------------------------------|
E|-8-8-8-8---------4-4--11-11------------------------------------------------|

[Pre Chorus-1:56] 
But you could be loved...
e|---------------------------------------------------------------------------|
B|---------------------------------------------------------------------------|
G|--7-7-7-7-7--8-8--5-5-5--3-3--8-8-8--7-7-----------------------------------|
D|---------------------------------------------------------------------------|
A|---------------------------------------------------------------------------|
E|-6-6-6-6-6--8-8--4-4-4--3-3--8-8-8--6-6------------------------------------|

[Chorus-2:37]
Swing like Sinatra...
e|---------------------------------------------------------------------------|
B|---------------------------------------------------------------------------|
G|---5--5---12--12---7--7---8--7---1--1---8--8\7--7--7--7--7-----------------|
D|---------------------------------------------------------------------------|
A|---------------------------------------------------------------------------|
E|-4--4---11--11---6--6---8--6---1--1---8--8----6--6--6--6-------------------|

e|---------------------------------------------------------------------------|
B|---------------------------------------------------------------------------|
G|---5--5---12--12---7--7---8--7---1--1---8--8\7--7--7--7--7-----------------|
D|---------------------------------------------------------------------------|
A|---------------------------------------------------------------------------|
E|-4--4---11--11---6--6---8--6---1--1---8--8----6--6--6--6-------------------|

[Outro-3:11] (Gradually slows down, listen for timing)
Cause I ain't scared of living...
e|---------------------------------------------------------------------------|
B|---------------------------------------------------------------------------|
G|--13\12--12\5----5--5--5--5--5--5----7/8--8\3----3--3--3--3--3--3----------|
D|---------------------------------------------------------------------------|
A|---------------------------------------------------------------------------|
E|--13\11--11\4--4--4--4--4--4--4------6/8--8\3--3--3--3--3--3--3------------|

e|---------------------------------------------------------------------------|
B|---------------------------------------------------------------------------|
G|--13\12--12\5----5--5--5--5--5--5----7/8--8\3----3--3--3--3--3--3----------|
D|---------------------------------------------------------------------------|
A|---------------------------------------------------------------------------|
E|--13\11--11\4--4--4--4--4--4--4------6/8--8\3--3--3--3--3--3--3------------|

e|---------------------------------------------------------------------------|
B|---------------------------------------------------------------------------|
G|--13\12--12\5----5--5--5--5--5--5----7/8--8\3----3--3--3--3--3--3----------|
D|---------------------------------------------------------------------------|
A|---------------------------------------------------------------------------|
E|--13\11--11\4--4--4--4--4--4--4------6/8--8\3--3--3--3--3--3--3------------|

e|---------------------------------------------------------------------------|
B|---------------------------------------------------------------------------|
G|--13\12--12\5----5--5--5--5--5--5----7/8--8\3----3--3--3--3--3--3----------|
D|---------------------------------------------------------------------------|
A|---------------------------------------------------------------------------|
E|--13\11--11\4--4--4--4--4--4--4------6/8--8\3--3--3--3--3--3--3------------|

e|---------------------------------------------------------------------------|
B|---------------------------------------------------------------------------|
G|--13\12--12\5----5--5--5--5--5--5----7/8--8\3----3--3--3--3--3--3----------|
D|---------------------------------------------------------------------------|
A|---------------------------------------------------------------------------|
E|--13\11--11\4--4--4--4--4--4--4------6/8--8\3--3--3--3--3--3--3------------|

[Outro-4:13]
Thats all I want...
e|---------------------------------------------------------------------------|
B|---------------------------------------------------------------------------|
G|--13\12--12\5----5--5--5--5--5--5--5--5--5--5--7--7/8--8\3-----------------|
D|---------------------------------------------------------------------------|
A|---------------------------------------------------------------------------|
E|--13\11--11\4--4--4--4--4--4--4--4--4--4--4-------6/8--8\3-----------------|

e|---------------------------------------------------------------------------|
B|---------------------------------------------------------------------------|
G|---3--3--3--3--3--3--3--3--/13--12--5--------------------------------------|
D|---------------------------------------------------------------------------|
A|---------------------------------------------------------------------------|
E|--3--3--3--3--3--3--3--3---/13--11--4--------------------------------------|

[Outro-4:42]
Like dumb pictures of your feet...
e|---------------------------------------------------------------------------|
B|---------------------------------------------------------------------------|
G|--/7--8--3-----------------------------------------------------------------|
D|---------------------------------------------------------------------------|
A|---------------------------------------------------------------------------|
E|--/6--8--3-----------------------------------------------------------------|

************************************

| h  Hammer-on
| p  Pull-off
| b  Bend
| /  Slide up
| \  Slide down

************************************


Suggest correction
Creating personal tab
Creating personal tab
You can edit any tab online and save it as your Personal.

You can edit, replace or remove any tab part or add personal notes – all changes will be seen only by you.

Personal tabs can be accessed anytime from any device, even offline.
Learn more »
comments
print report bad tab
17 comments total. Showing first comments.
+4 reply
Mathias Michaelsen 10 Aug 24, 2016 03:36 PM

What accords are you using in the solo? I'm pretty sure thats not the way he plays it. EDEN Slides from 2nd or 3rd thread.

0 reply
csavok1 263 Aug 25, 2016 08:00 AM

Great job! Thank you.

0 reply
Mathias Michaelsen 10 Aug 25, 2016 09:54 AM

Can you post the video link in here once you upload it?

guest
You may want to rate the tab now too:
select rating
Wanna post a correction for this tab? Suggest correction