Oops, an error
Loading. Please wait.

In A Dream Tab

19 views 1 this week
no commentswrite comment
1 2 3 4 5
3 more votes to show rating
add to favorites
launch autoscroll
font size
0
reset
how to read this tab
guitar tuner
Autoscroll
slow
fast
+/-
esc
set tempo
stop
Help us to improve Ultimate-Guitar.com Take our survey!
×
Author
Difficulty
Tuning
intermediate
D# G# C# F# A# D#
About this tab version
Originally recorded with 7 string, but played live with a 6 string (1/2 step down). Was this info helpful? Yes No
----------------------------------------------------------------- 
IN A DREAM (2015) - 
Edge of Paradise 
----------------------------------------------------------------- 

Tabbed by: David Clark
Email: davidclark0518@gmail.com
Tuning: 1/2 step down

/originally recorded on 7-string guitar with a low B/

[Intro]
        Bm                      A
e|---------------------------------------------------------------|
B|-------------------------7-------------------------------------|
G|------- 7------------------------------------------------------|
D|-----11---11--------- 11-----------------------------7--9--7---|
A|---9----------9-----9-------------------5--4-----9-------------|
E|-7----------------7-----------7--9--10--------5----------------|
        
        Bm                      A
e|---------------------------------------------------------------|
B|---------------------------------------------------------------|
G|---------------------------------------------------------------|
D|-----------7---------------------------7-----------------------|
A|---------------------------------4--5--------------------------|
E|-7--9--10-----7--9--10--------5-----------7--9--10-------------|


VERSE 1:
(chord shapes / patterns) 

Bm, A, Bm, A, G, A, G, A
"I feel the realm of mist and dew it's hovering around me...
        Bm                      A
e|---------------------------------------------------------------|
B|-------------------------7-------------------------------------|
G|------- 7------------------------------------------------------|
D|-----11----11---------11-----------------------------7--9--7---|
A|---9----------9-----9-------------------5--4-----9-------------|
E|-7----------------7-----------7--9--10--------5----------------|

"I hear the the note of a siren's song luring inside me...
        Bm                      A        
e|---------------------------------------------------------------|
B|--------------------------7------------------------------------|
G|--------7------------------------------------------------------|
D|-----11-----11---------11----------------------------7--9--7---|
A|---9-----------9-----9-------------------5--4-----9------------|
E|-7----------------7-----------7--9--10--------5----------------|

"...to leave this world; To dream a world... 
        G                         A
e|--------------------------------------------------------------|
B|-----------2------3------2-------------5----3-----2-----------|
G|--------0----0-------0-----0---------2-----2----2----2--------|
D|------0---------0------0---- 0-----2--------------------2-----|
A|--------------------------------0----------------(0)----------|
E|--3--------------(3)------------------------------------------|

"Today; To leave dismay...
        G                       A5* (heavy distortion)     (Big Slide)
e|---------------------------------------------------------------|
B|---------------3-----------------------------------------------|
G|--------4--------4----4----------------------------------------|
D|------5---5--------5----5----------7--7-7-7-7-7-7-7-7----------|
A|----5-------5--------------5-----7----7-7-7-7-7-7-7-7----------|
E|--3---------------------------5-------5-5-5-5-5-5-5-5---12\----|

[Chorus]

"In a dream I don't feel no fear
In a dream I don't feel regret"

B5,  A5,  Em,  D

e|----------------------------|
B|----------------------------|
G|----------------------------|
D|-9---7-7-7--7--7-7-7--------|
A|-9---4-5 4--7--4 5-5--------|
E|-7----------5---------------|

"In a dream I could run forever
In a dream no one dies"

B5, D, A5, Em

e|----------------------------|
B|----------------------------|
G|----------------------------|
D|-9---7-7-7--7--7-7-7--------|
A|-9---4-5 4--7--4 5-5--------|
E|-7----------5---------------|

"In a dream there are no goodbyes
In a dream I don't live your lies"

B5, A5, Em, D

e|----------------------------|
B|----------------------------|
G|----------------------------|
D|-9---7-7-7--7--7-7-7--------|
A|-9---4-5 4--7--4 5-5--------|
E|-7----------5---------------|

"In a dream I can feel I can heal
So why should I not leave"

B5, A5, G5

e|----------------------------|
B|----------------------------|
G|----------------------x-----|
D|-9------7------5------x-----|
A|-9------7------5------x-----|
E|-7------5------3------x-----|

[Fill 1] 
(transition to verse 2)
e|-----------------------------|
B|-----------------------------|
G|-----------------------------|
D|-----------------------------|  x2
A|----------9------------------|
E|--7--9-10---10--7--9--10--7--|

[VERSE 2]
(chord shapes / patterns) 
Bm, A, Bm, A, G, A, G, A
"I used to look into your eyes and smile...
        Bm                      A
e|---------------------------------------------------------------|
B|-------------------------7-------------------------------------|
G|--------7------------------------------------------------------|
D|-----11-----11---------11-----------------------------7--9--7--|
A|---9-----------9-----9-------------------5--4-----9------------|
E|-7----------------7-----------7--9--10--------5----------------|

"I used to think I'd never feel denial...
        Bm                      A        
e|---------------------------------------------------------------|
B|-------------------------7-------------------------------------|
G|--------7------------------------------------------------------|
D|-----11-----11---------11-----------------------------7--9--7--|
A|---9-----------9-----9-------------------5--4-----9------------|
E|-7----------------7-----------7--9--10--------5----------------|

"But now I'm here; It's a sad sad world...
        G                         A
e|--------------------------------------------------------------|
B|-----------2------3------2-------------5----3-----2-----------|
G|--------0----0-------0-----0---------2-----2----2----2--------|
D|------0---------0------0-----0-----2--------------------2-----|
A|--------------------------------0----------------(0)----------|
E|--3--------------(3)------------------------------------------|

"... and time cruel time; It never stops to be"
        G                       A5* (heavy distortion)
e|---------------------------------------------------------------|
B|---------------3-----------------------------------------------|
G|--------4--------4----4----------------------------------------|
D|------5---5--------5----5----------7--7-7-7-7-7-7-7-7----------|
A|----5-------5--------------5-----7----7-7-7-7-7-7-7-7----------|
E|--3---------------------------5-------5-5-5-5-5-5-5-5----------|

[Chorus]
In a dream I don't feel no fear
In a dream I don't feel regret

B5,   A5,   Em,   D

e|----------------------------|
B|----------------------------|
G|----------------------------|
D|-9---7-7-7--7--7-7-7--------|
A|-9---4-5 4--7--4 5-5--------|
E|-7----------5---------------|

In a dream I could run forever
In a dream no one dies

B5, D, A5, Em

e|----------------------------|
B|----------------------------|
G|----------------------------|
D|-9---7-7-7--7--7-7-7--------|
A|-9---4-5 4--7--4 5-5--------|
E|-7----------5---------------|

In a dream there are no goodbyes
In a dream I don't live your lies

B5, A5, Em, D

e|----------------------------|
B|----------------------------|
G|----------------------------|
D|-9---7-7-7--7--7-7-7--------|
A|-9---4-5 4--7--4 5-5--------|
E|-7----------5---------------|

In a dream I can feel I can heal
So why should I not leave

B5, A5, G5, [pause]

e|----------------------------|
B|----------------------------|
G|----------------------x-----|
D|-9------7------5------x-----|
A|-9------7------5------x-----|
E|-7------5------3------x-----|

[Solo]
e|---------------------------------------------------------------|
B|--12p0--10p0--8p0- 7p0- 5p0-7p0 8p0 10p0-----------------------|
G|---------------------------------------------------------------|
D|---------------------------------------------------------------|
A|---------------------------------------------------------------|
E|---------------------------------------------------------------|

e|---------------------------------------------------------------|
B|--12p0--10p0--8p0--7p0--8p0--7p0----------------7p0--8p0--10p0-|
G|----------------------------------9p0--7p0--9p0----------------|
D|---------------------------------------------------------------|
A|---------------------------------------------------------------|
E|---------------------------------------------------------------|

\slide bottom strings from 12 to 0\

[Bridge]
"I always thought if I'd wake up I'd find another way
I never heard lost years gone by, didn't get another chance
I tried to stand and face the unforgiving trial
But now I now the way to run from ultimate denial"

B5, G5, B5, G5 (x2)

e|----------------------------|
B|----------------------------|
G|----------------------------|
D|--9------5------9------5----|  x2
A|--9------5------9------5----|
E|--7------3------7------3----|

/Hold Bm/

[Chorus]
In a dream I don't feel no fear
In a dream I don't feel regret

B5, A5, Em, D

e|----------------------------|
B|----------------------------|
G|----------------------------|
D|-9---7-7-7--7--7-7-7--------|
A|-9---4-5 4--7--4 5-5--------|
E|-7----------5---------------|

In a dream I could run forever
In a dream no no no one dies

B5, D, A5, Em

e|----------------------------|
B|----------------------------|
G|----------------------------|
D|-9---7-7-7--7--7-7-7--------|
A|-9---4-5 4--7--4 5-5--------|
E|-7----------5---------------|

In a dream there are no goodbyes
In a dream I don't live your lies

B5, A5, Em, D

e|----------------------------|
B|----------------------------|
G|----------------------------|
D|-9---7-7-7--7--7-7-7--------|
A|-9---4-5 4--7--4 5-5--------|
E|-7----------5---------------|

I wanna go, to let go, let me go
I close my eyes and dream

B5, A5, G5, A5

e|----------------------------|
B|----------------------------|
G|----------------------------|
D|-9------7------5------7-----|
A|-9------7------5------7-----|
E|-7------5------3------5-----|

[Ending]
*** finish on Bm (hold/sustain)

e|------|
B|-7----|
G|-7----|
D|-9----|
A|-9----|
E|-7----|
 

************************************

| x    Dead note
| (n)  Ghost note
| p    Pull-off
| \    Slide down 

************************************
Suggest correction
Give kudos to tab author, rate the tab!
1 2 3 4 5
comments
print report bad tab
guest
You may want to rate the tab now too:
select rating
Wanna post a correction for this tab? Suggest correction