Oops, an error
Loading. Please wait.

Mysteria Tab

version 1
version 1

Whole song

Interactive

by Edguy
13,179 views 9 this week
2 commentsread comments
1 2 3 4 5
x 6
add to favorites
×
Save as Personal and add changes to this tab that will be seen only by you. Learn more ›
×
You can save this tab as Personal to edit and correct it or add notes. All changes will be seen only by you. Learn more »
save as personal
new!
launch autoscroll
font size
0
reset
how to read this tab
guitar tuner
Autoscroll
slow
fast
+/-
esc
set tempo
stop
Author
Tuning
D A D G B E
Eb tuning

[Intro]
E|-------------------------------------------------------------------------|
B|-------------------------------------------------------------------------|
G|-------------------------------------------------------------------7--7--|
D|-------------------------------------------------------------------7--7--|
A|--7----8-7-----5-----7---8-7---10----8---7----8-7----5----7-8-7----5--5--|
D|-----0------0-----0----0-----0-----0---0----0------0----0-------0--------|

E|------------------------------------------------------|
B|------------------------------------------------------|
G|------------------------------------------------------|
D|--9-----10--9-----7-----9--10--9-----12-----10--------|
A|--7-----8---7-----5-----7--8---7-----10-----8---------|
D|-----0---------0-----0------------0------0------0-----|

E|-------------------------------------------|
B|-------------------------------------------|
G|-------------------------------------7--7--|
D|--9-----10--9-----7-----9--10--9-----7--7--|
A|--7-----8---7-----5-----7--8---7-----5--5--|
D|-----0---------0-----0------------0--------|

E|------------------------------------------------------|
B|------------------------------------------------------|
G|------------------------------------------------------|
D|--9-----10--9-----7-----9--10--9-----12-----10--------|
A|--7-----8---7-----5-----7--8---7-----10-----8---------|
D|-----0---------0-----0------------0------0------0-----|

E|-----------------------------------|
B|-----------------------------------|
G|-----------------------------------|
D|--9-----10--9-----7------7--3------|
A|--7-----8---7-----5------7--3------|
D|-----0---------0-----0---5--1------|

[Verse]
E|-------|
B|-------|
G|-------|
D|--2----| (intro riff again)
A|--2----|
D|--0----|

[Pre-Chorus]
E|---------------|
B|---------------|
G|--7--10--------|
D|--7--10--7--5--|
A|--5--8---7--5--|
D|---------5--3--|

[Chorus]
E|------------------------------------|
B|------------------------------------|
G|--------------------7--9--10--9--5--|
D|--7--5--3--7--5--3--7--9--10--9--5--|
A|--7--5--3--7--5--3--5--7--8---7--3--|
D|--5--3--1--5--3--1------------------|

[Verse 2]
E|----------------------------|
B|----------------------------|
G|----------------------------|
D|--2-----2-2----2-----2-3-2--| (intro riff again)
A|----------------------------|
D|-----0------0-----0---------|

E|---------------------------------------------------|
B|---------------------------------------------------|
G|------4-5-4-5-4--5-7-5-4-2--4-5-4-5-4--5-7-5-2-----|
D|--2---2-3-2-3-2--3-5-3-2-0--2-3-2-3-2--3-5-3-0--2--|
A|--2---------------------------------------------2--|
D|--0---------------------------------------------0--|

E|--------|
B|--------|
G|--7--5--|
D|--7--5--|
A|--5--3--|
D|--------|
Suggest correction
comments
print report bad tab
2 comments total.
0 reply
Jackswastedlife 51 Nov 15, 2006 07:38 AM

Well done my Friend, complete accurate and 100% right.

Keep Rockin´, Mike

0 reply
olly_otter 10 Feb 28, 2009 11:51 AM

cheers mate it sounds 100% fine 2 me :)

guest
You may want to rate the tab now too:
select rating
Wanna post a correction for this tab? Suggest correction