Oops, an error
Loading. Please wait.

Wash Away The Poison Tab

1,679 views 1 this week
no commentswrite comment
1 2 3 4 5
1 last vote to show rating
add to favorites
launch autoscroll
font size
0
reset
how to read this tab
guitar tuner
Autoscroll
slow
fast
+/-
esc
set tempo
stop
Help us to improve Ultimate-Guitar.com Take our survey!
×
Author
Difficulty
Tuning
novice
D# G# C# F# A# D#
---------------------------------------------------------------------------------
                              WASH AWAY THE POISON - Edguy
---------------------------------------------------------------------------------

Tabbed by: Poglia

Tuning: Eb


Guitars enter at 1:40


e|-----------------------------------------------------------------------------|
B|-----------------------------------------------------------------------------|
G|-----------------------------------------------------------------------------|
D|-----------------------------------------------------------------------------|
A|--2--2--2--2--2-2-2-2-2-2-2-2------------------------------------------------|
E|--0--0--0--0--0-0-0-0-0-0-0-0------------------------------------------------|
   |---------------------------| P.M.

                    
Chorus at 1:43

e|-----------------------------------------------------------------------------|
B|-----------------------------------------------------------------------------|
G|--5-------------------5----8---------3--5-------------------5----8-----------|
D|--5----4----8----5----5----8----5----3--5----6----8----5----5----8----5------|
A|--3----4----8----5----3----6----5----1--3----6----8----5----3----6----5------|
E|-------6----6----3--------------3------------4----6----3--------------3------|

e|-----------------------------------------------------------------------------|
B|-----------------------------------------------------------------------------|
G|-----------------------------------------------------------------------------|
D|--8--6--------6--------------------------------------------------------------|
A|--8--6--------6--------------------------------------------------------------|
E|--6--4--------4--------------------------------------------------------------|


Solo at 2:15


Guitar 1 (lead)
              
e|--------------------------------------------------------6--4--6--------------|
B|-----6--8--8b9r8--6--6--8--6------------6--8--8b9r8--6-----------6-----------|
G|--8---------------------------8------8------------------------------8--------|
D|-----------------------------------------------------------------------------|
A|-----------------------------------------------------------------------------|
E|-----------------------------------------------------------------------------|

e|-----------------------------------------------------------------------------|
B|-----6--8--8b9r8--6--6--8--6-----------------6-------------------------------|
G|--8---------------------------8----5--7b8r7----------------------------------|
D|-----------------------------------------------------------------------------|
A|-----------------------------------------------------------------------------|
E|-----------------------------------------------------------------------------|

e|--------------------------------------------------------6--4--6--------------|
B|-----6--8--8b9r8--6--6--8--6------------6--8--8b9r8--6-----------6-----------|
G|--8---------------------------8------8------------------------------8--------|
D|-----------------------------------------------------------------------------|
A|-----------------------------------------------------------------------------|
E|-----------------------------------------------------------------------------|

e|-----------------------------------------------------------------------------|
B|-----6--8--8b9r8--6--6--8--6-------------------------------------------------|
G|--8---------------------------8----5--7b8r7*---------------------------------|
D|-----------------------------------------------------------------------------|
A|-----------------------------------------------------------------------------|
E|-----------------------------------------------------------------------------|
  *Let ring until chorus, then bend to 9 again

Guitar 2 (rhythm)

e|-----------------------------------------------------------------------------|
B|-----------------------------------------------------------------------------|
G|--5---------5----8-------5---------------------------------------------------|
D|--5----6----5----8--8----5---6----3----5--8----------------------------------|
A|--3----6----3----6--8----3---6----3----5--8----------------------------------|
E|-------4------------6--------4----1----3--6----------------------------------|

e|-----------------------------------------------------------------------------|
B|-----------------------------------------------------------------------------|
G|--5---------5----8-------5---------------------------------------------------|
D|--5----6----5----8--8----5---6----3----5-----5--5--5--5--5-5-5-5-5-5-5-5-----|
A|--3----6----3----6--8----3---6----3----5-----3--3--3--3--3-3-3-3-3-3-3-3-----|
E|-------4------------6--------4----1----3-----3--3--3--3--3-3-3-3-3-3-3-3-----|
                                              |---------------------------| P.M.
 
Chorus at 3:12


e|-----------------------------------------------------------------------------|
B|-----------------------------------------------------------------------------|
G|--5-------------------5----8-------3--5-------------------5----8-------3--5--|
D|--5----4----8----5----5----8----5--3--5----6----8----5----5----8----5--3--5--|
A|--3----4----8----5----3----6----5--1--3----6----8----5----3----6----5--1--3--|
E|-------6----6----3--------------3----------4----6----3--------------3--------|


Chorus at 3:36


e|-----------------------------------------------------------------------------|
B|-----------------------------------------------------------------------------|
G|--7----3----5----2----7----10---2----5--7----3----5----2----7----10---2------|
D|--7----3----5----2----7----10---2----5--7----3----5----2----7----10---2------|
A|--5----1----3----0----5----8----0----3--5----1----3----0----5----8----0------|
E|-----------------------------------------------------------------------------|

e|-----------------------------------------------------------------------------|
B|-----------------------------------------------------------------------------|
G|--5---7----------------------------------------------------------------------|
D|--5---7----------------------------------------------------------------------|
A|--3---5----------------------------------------------------------------------|
E|-----------------------------------------------------------------------------|

End
Suggest correction
Give kudos to tab author, rate the tab!
1 2 3 4 5
comments
print report bad tab
guest
You may want to rate the tab now too:
select rating
Wanna post a correction for this tab? Suggest correction