Oops, an error
Loading. Please wait.

What I Am Tab

version 1
version 1

Whole song

28,731 views 78 this week
no commentswrite comment
1 2 3 4 5
x 4
add to favorites
launch autoscroll
font size
0
reset
how to read this tab
guitar tuner
×
Best way to learn
"What I Am"
Autoscroll
slow
fast
+/-
esc
set tempo
stop
Author
(Just move it up two D, then down to A, then back to B.)
e|-----------------------------5-------------------------------2----|
B|---------2----2--------5------------------------0------------2----|
G|---------4----4--------------------------2----2---------4---------|
D|---------4----4------7-------------------2--2---------4-----------|
A|--2--2-2----2------5------5-------0-0-0-------------2------2------|
E|------------------------------------------------------------------|

[Verse]
(Just move it up two D, then down to A, then back to B.)
e|-----------------------------5-------------------------------2----|
B|---------2----2--------5------------------------0------------2----|
G|---------4----4--------------------------2----2---------4---------|
D|---------4----4------7-------------------2--2---------4-----------|
A|--2--2-2----2------5------5-------0-0-0-------------2------2------|
E|------------------------------------------------------------------|

I'm not aware of too many things
I know what I know if you know what I mean

Philosophy is the talk on a cereal box
Religion is the smile on a dog
I'm not aware of too many things
I know what I know if you know what I mean
De-doo yeah

[Chorus]
Em              D
Chuck me in the shallow water
Em               D
Before I get too deep

(Just move it up two D, then down to A, then back to B.)
e|-----------------------------5-------------------------------2----|
B|---------2----2--------5------------------------0------------2----|
G|---------4----4--------------------------2----2---------4---------|
D|---------4----4------7-------------------2--2---------4-----------|
A|--2--2-2----2------5------5-------0-0-0-------------2------2------|
E|------------------------------------------------------------------|

(There's a little lead line on guitar over the chorus)

  Em                     D
e|---12---15---12-----12---------14---12------|
B|----------------15------15--15----------15--|
G|--------------------------------------------|
D|--------------------------------------------|
A|--------------------------------------------|
E|--------------------------------------------|

    Chuck  me in  the    shallow water
Suggest correction
comments
print report bad tab
guest
You may want to rate the tab now too:
select rating
Wanna post a correction for this tab? Suggest correction