Oops, an error
Loading. Please wait.

What I Am bass

version 1
version 1

Whole song

4,023 views 15 this week
1 commentread comment
1 2 3 4 5
1 last vote to show rating
add to favorites
×
Save as Personal and add changes to this tab that will be seen only by you. Learn more ›
×
You can save this tab as Personal to edit and correct it or add notes. All changes will be seen only by you. Learn more »
launch autoscroll
font size
0
reset
guitar tuner
edit
Autoscroll
slow
fast
+/-
esc
set tempo
stop
Author
-----------------------------------------------------------------------------
                  WHAT I AM - Edie Brickell & New Bohemians
-----------------------------------------------------------------------------

Tabbed by: Matt Broback
E-mail: 37hambone@gmail.com

Tuning: E A D G

. = accent/staccato note
t = thirty-second note


INTRO
         x3
|----------|---------|
|:--------:|---------|
|:--------:|------12\|
|----------|---------|


VERSE 1
     .                .                .            .     .
|----4-------4.2-|----2-----------|----4---------4.22|----2-----------|
|------.------4--|------.----.----|------.----.---4--|------.-.--.----|
|2-----22/5------|0-----00-2-24-5-|2-----22/5-55-----|0-----0002-24-5-|
|----------------|----------------|------------------|----------------|

     .             .     .                .             . 
|----4---------4-2-2|----2-----------|----4---------4.2-2|---------------|
|------.----.-------|------.----.----|---.--.----.---4---|-.-7\-.-.-.--0-|
|2-----22/5-55------|0-----00-2-24-5-|2--2--22/5-55------|000--0022222---|
|-------------------|----------------|-------------------|---------------|

     .                  .                 .                          tttt
|----4---------4.2-|----2------------|----4---------4.2-|-------------..-|
|------.----.---4--|------.----.----.|------.----.---4--|---7\-.-.-.--20-|
|2-----22/5-55-----|0-----00-2-24-5-0|2-----22/5-55-----|0----0022224---4|
|------------------|-----------------|------------------|----------------|

     .                  .                .
|----4---------4.2-|----2-----------|----4---------4.2-|-----------------|
|------.----.---4--|------.----.----|------.----.---4--|----7\-.-.-------|
|2-----22/5-55-----|0-----00-2-24-5-|2-----22/5-55-----|0-----00222-3-4/5|
|------------------|----------------|------------------|-----------------|


PRECHORUS 1

|----.-------.-----|----4-2-------.--|----.-------.-----|-.-4.2--.-----|
|2---24/5\4--42--2.|0---------.0--00-|2---24/5\4--42--2.|000-4---420--.|
|--------------0--0|----------0------|--------------0--0|------------40|
|------------------|-----------------|------------------|--------------|


CHORUS 1
     .                                   .                  
|----4---------4.2-|----------------|----4---------4.2-|---------------.|
|------.----.---4--|----7\-.-.------|------.----.---4--|----7\-.-.---0-0|
|2-----22/5-55-----|0-----00222-4-5-|2-----22/5-55-----|0-----00222-----|
|------------------|----------------|------------------|----------------|


VERSE 2
     .                  .                .                          tttt
|----4---------4.2-|----2-----------|----4---------4.2-|----------------|
|------.----.---4--|------.-.--.----|--.---.----.---4--|----7\-.-.---20-|
|2-----22/5-55-----|0-----0002-24-5-|2-22--22/5-55-----|0-----00222----4|
|------------------|----------------|------------------|----------------|

     .                                   .                           tttt 
|----4---------4.2-|----------------|----4---------4.2-|-----------------|
|------.----.---4--|----7\-.-.-.----|------.----.---4--|----7\-.-.-.--20-|
|2-----22/5-55-----|0-----0022224-5-|2-----22/5-55-----|0-----0022224---4|
|------------------|----------------|------------------|-----------------|

     .                  .                  .                          
|----4---------4.2-|----2------------.|----4---------4.2-|----------------|
|------.----.---4--|------.----.-.--00|------.----.---4--|----7\-.-.------|
|2-----22/5-55-----|0-----00-2-2224---|2-----22/5-55-----|0-----00222-34/5|
|------------------|------------------|------------------|----------------|


PRECHORUS 2

|----.------.-----|----4-2---------|----.-------.-----|-.-4.2--.----.|
|2---24/54--42--2.|0--------.0-4-0-|2---24/5\4--42--2.|000-4---420-40|
|-------------0--0|---------0------|--------------0--0|--------------|
|-----------------|----------------|------------------|--------------|

                                  tttt                              tttt
|----.-------.-----|----4.2--.--------|----.------.-----|-.-4.2--.------|
|2---24/5\4--42--2.|0----4---20-4-4000|2---24/54--42--2.|000-4---420-420|
|--------------0--0|------------------|-------------0--0|---------------|
|------------------|------------------|-----------------|---------------|


CHORUS 3
     .                                   .
|----4---------4.2-|---------------.|----4---------4.2-|---------------.|
|------.----.---4--|----7\-.-.-.--00|------.----.---4--|----7\-.-.-.--00|
|2-----22/5-55-----|0-----0022222---|2-----22/5-55-----|0-----0022224---|
|------------------|----------------|------------------|----------------|

     .                                   .
|----4---------4.2-|---------------.|----4---------4.2-|---------------.|
|------.----.---4--|----7\-.-.-.-020|------.----.---4--|----7\-.-.-.---0|
|2-----22/5-55-----|0-----0022224---|2-----22/5-55-----|0-----0022222-4-|
|------------------|----------------|------------------|----------------|


BRIDGE
                                                                 tttt
|----.------.-----|---.4.2--.------|----.------.-----|-.-4.2--.------|
|2---24/54--42--2-|0--0-4---20-4-0-|2---24/54--42--2.|000-4---420-420|
|-------------0---|----------------|-------------0--0|---------------|
|-----------------|----------------|-----------------|---------------|


SOLO
     .                  .                .
|----4---------4.2-|----2-----------|----4---------4.2-|----------------|
|------.----.---4--|------.----.---.|------.----.---4--|--.-7\-.-.-----.|
|2-----22/5-55-----|0-----00-2-24-55|2-----22/5-55-----|0-00--00222-4-55|
|------------------|----------------|------------------|----------------|

                                                                   tttt
|----4--------4.2-|----------------|----4--------4.2-|-----------------|
|-.--------.---4--|-..-7\-.-.-----.|----------.---4--|---7\-.-.-.---20-|
|222---2/5-55-----|0000--00222-4-55|2-2---2/5-55-----|0----0022224----4|
|-----------------|----------------|-----------------|-----------------|

     .                                                              tttt
|----4---------4.22|----------------|----4--------4.2-|-----------------|
|------.----.---4--|----7\-.-.-----.|-.--------.---4--|----7\-.-.----20-|
|2-----22/5-55-----|0-0---00222-4-55|222---2/5-55-----|0-0---00222-2---4|
|------------------|----------------|-----------------|-----------------|

     .
|----4---------4.2-|-----------------|-----4--------4.2-|----------------|
|------.----.---4--|-.--7\--.-.-----.|.-.--------.---4--|----7\.-.-------|
|2-----22/5-55-----|000---0-2-22-4-55|2-22---2/5-55-----|0-0---0002~~~~\-|
|------------------|-----------------|------------------|----------------|


PRECHORUS 3
                                                                   tttt
|----.------.-----|---.4.2------.--|----.------.-----|-.-4.2--.--------|
|2---24/54--42--2-|0--0-4---.0-400-|2---24/54--42--2.|000-4---20-4-0400|
|-------------0---|---------0------|-------------0--0|-----------------|
|-----------------|----------------|-----------------|-----------------|

                                                                   tttt
|.---.---.--.-----|----4.2--.----.--|----.------.-----|-.-4.2--.-------|
|2---24/54--42--2.|0----4---20-4-00-|2---24/54--42--2.|000-4---420--420|
|-------------0--0|-----------------|-------------0--0|----------------|
|-----------------|-----------------|-----------------|----------------|


OUTRO CHORUS
     .                                     .                            tttt
|----4---------4.2-|------------------|----4---------4.2-|------------------|
|------.----.---4--|---7\--.-.-.-.----|------.----.---4--|----7\-.-.----020-|
|2-----22/5-55-----|0------00022224-5-|2-----22/5-55-----|0-----00222-4----4|
|------------------|------------------|------------------|------------------|

     .                                   .
|----4---------4.2-|---------------.|----4---------4.2-|----------------.|
|------.----.---4--|----7\-.-.-.-.20|------.----.---4--|----7\.-.-.-.-.20|
|2-----22/5-55-----|0-----00222244--|2-----22/5-55-----|0-----000222244--|
|------------------|----------------|------------------|-----------------|

     .                                   .
|----4---------4.2-|-------------.-.|----4---------4.2-|-------------.-.|
|------.----.---4--|----7\-.-.---020|-----------.---4--|-.-7\-.-.--.-020|
|2-----22/5-55-----|0-----00222-4---|2------2/5-55-----|000--00222-24---|
|------------------|----------------|------------------|----------------|

     .
|----4---------4.2-|------------.-.|----4--------4.2-|-----------------|
|------.--------4--|---7\-.-.---020|-.--------.---4--|----7\-.-.----00-|
|2-----22/5-55-----|0----00222-4---|222---2/5-55-----|0-----00222-4----|
|------------------|---------------|-----------------|-----------------|

     .                                  .
|----4---------4.2-|--------------.|----4---------4.2-|-----------------|
|------.--------4--|---7\-.-.-.--00|-----------.---4--|----7\-.-.----00-|
|2-----22/5-55-----|0----0022222---|2-----22/5-55-----|0-----00222-4----|
|------------------|---------------|------------------|-----------------|

      .            .                                      .
|-----4----9.7-4.2-2|-----------------|--------------.4.2-2|---------------------|
|-.--.--..--9---4---|-.-.7.-.-.-.----.|-.--.----.----4-4---|.-.--.7---.-.--.--00-|
|222-2--22----------|0000-00022224-5-5|222-22-2/5-55-------|0-00-0--0/2-22-24----|
|-------------------|-----------------|--------------------|---------------------|


|------4--------4.22|
|.-.--.------.---4--|
|2-22-2--2/5-55-----|
|-------------------|

            
            
Suggest correction
Creating personal tab
Creating personal tab
You can edit any tab online and save it as your Personal.

You can edit, replace or remove any tab part or add personal notes – all changes will be seen only by you.

Personal tabs can be accessed anytime from any device, even offline.
Learn more »
Give kudos to tab author, rate the tab!
1 2 3 4 5
comments
print report bad tab
1 comment total.
0 reply
AlphaCentaurus 76 Jun 09, 2015 10:06 AM

Lack of accuracy. Clearly wrong. It oversimplifies the riff and in parts just gets it plain wrong. It has bits and pieces of the real thing in there but... Sounds plain wrong.

guest
You may want to rate the tab now too:
select rating
Wanna post a correction for this tab? Suggest correction