Oops, an error
Loading. Please wait.

An End Has A Start bass

version 1
version 1

Whole song

Interactive

by Editors
7,515 views 6 this week
2 commentsread comments
1 2 3 4 5
1 last vote to show rating
add to favorites
×
Save as Personal and add changes to this tab that will be seen only by you. Learn more ›
×
You can save this tab as Personal to edit and correct it or add notes. All changes will be seen only by you. Learn more »
launch autoscroll
font size
0
reset
guitar tuner
edit
Autoscroll
slow
fast
+/-
esc
set tempo
stop
Most of this should be correct except the chorus I didn’t get that right

Starts at (0:06)
Intro/Verse  x4
G||------------------------------------------------------------------|
D||------------------------------------------------------------------|
A||-2-2-2-2-2-2-2-2--9-9-9-9-9-9-9-9--5-5-5-5-5-5-5-9-9-9-9-9-9-9-9--| 
E||------------------------------------------------------------------|

Pre-Chorus
G|------------------------------------------------------------------|
D|------------------------------------------------------------------|
A|-7-7-7-7-7-7-7-7--2-2-2-2-2-2-2-2--5-5-5-5-5-5-5--9-9-9-9-9-9-9-9-|  x2
E|------------------------------------------------------------------|

G|---------------------------------|
D|---------------------------------|
A|-7-7-7-7-7-7-7-7-7-7-7-7-7-7-7-7-|
E|---------------------------------|

Chorus  x4
G|-------------------------------------------------------------------------|
D|---------------4-4-------------7-7-7-7-----------------------------------|
A|--2-2-2-2-2-2---------4-4-4-4------------7-7-7-7-7-7-7-7-7-7-7-7-7-7-7-7-|
E|-------------------------------------------------------------------------|

Intro/Verse  (variations of it)
Pre-Chorus
Chorus

Bridge  x2
G|------------------------------------------------------------------|
D|------------------------------------------------------------------|
A|5-5-5-5-5-5-5-5-9-9-9-9-9-9-9-9-7-7-7-7-7-7-7-7-7-4-4-4-4-4-4-4-4-|
E|------------------------------------------------------------------|

G|------------------------------------------------------------------|
D|------------------------------------------------------------------|
A|5-5-5-5-5-5-5-5-9-9-9-9-9-9-9-9-7-7-7-7-7-7-7-7-7-7-7-7-7-7-7-7-7-|
E|------------------------------------------------------------------|

Breakdown thing
G|
D|
A| REST
E|

Come back in at (2:46)

Chorus
Intro/Verse

            
            
Suggest correction
Creating personal tab
Creating personal tab
You can edit any tab online and save it as your Personal.

You can edit, replace or remove any tab part or add personal notes – all changes will be seen only by you.

Personal tabs can be accessed anytime from any device, even offline.
Learn more »
Give kudos to tab author, rate the tab!
1 2 3 4 5
comments
print report bad tab
2 comments total.
0 reply
kruutje 93 May 16, 2008 08:50 AM

yeh the chorus is not right

0 reply
kruutje 93 May 25, 2008 03:41 AM

Chorus _____
G|---------------------------------------------------------|
D|-----------------------7-7-7-----------------------------|
A|---------—9-9-9/4-4-4-4-----7-7-7-7-7-7-7-7-7-7-7-7-7-7--|
E|--7-7-7-7------------------------------------------------|

G|------------------------------------------------------------|
D|-----------------------7-7-7--------------------------------|
A|----------9-9-9/4-4-4-4-----7-7-7-7-7-7-7-7/9-9-9/11-11-11--|
E|--7-7-7-7---------------------------------------------------|___ x2

guest
You may want to rate the tab now too:
select rating
Wanna post a correction for this tab? Suggest correction