Oops, an error
Loading. Please wait.

An End Has A Start tab

version 2
version 2

Whole song

Interactive

by Editors
2,819 views 3 this week
3 commentsread comments
1 2 3 4 5
2 more votes to show rating
add to favorites
×
Save as Personal and add changes to this tab that will be seen only by you. Learn more ›
×
You can save this tab as Personal to edit and correct it or add notes. All changes will be seen only by you. Learn more »
launch autoscroll
font size
0
reset
how to read this tab
guitar tuner
edit
Autoscroll
slow
fast
+/-
esc
set tempo
stop
Author
Difficulty
Intro:LEAD
E-------------------------------------|
A-------------------------------------|
D----11---9---------------------------|
G-11----9----11--9--------9-----------|
B-------------------9--10-------------|
E-------------------------------------|

RHYTHM INTRO:

E--7----2-------2----------------------|
A--9----4---5---4----------------------|
D--9----4---7---4----------------------|
G-----------7--------------------------|
B--------------------------------------|
E--------------------------------------|

Verse                     BUILD uP "someone hit the lights"
E---------------------------------------------------------------------------|
A---------------------------------------------------------------------------|
D---------------------------------------------------------------------------|
G-11------9---------X4--THEN----------------------------x4------------------|
B-10--x8-10--x8------------------10--X8---7--X8----------------9----12------|
E-12------9-----------------------------------------------------------------|


CHORUS
E---------2---------------|
A--2------4-----------2---|
D--4------4-----------2---|
G--4----------2-------1---|
B-------------2-----------|
E-------------2-----------|
Suggest correction
Creating personal tab
Creating personal tab
You can edit any tab online and save it as your Personal.

You can edit, replace or remove any tab part or add personal notes – all changes will be seen only by you.

Personal tabs can be accessed anytime from any device, even offline.
Learn more »
Give kudos to tab author, rate the tab!
1 2 3 4 5
comments
print report bad tab
3 comments total.
0 reply
j-boy199 140 Jan 14, 2008 11:21 AM

this tab is awesome! it sounds right, its just iv seen vids of him using a capo, but it's still correct i guess

+1 reply
j-boy199 140 Jan 14, 2008 11:22 AM

altho one major thing, the diagrams are the wrong way roung :P lol oh well its readable

0 reply
derköther95 42 Jun 17, 2011 04:50 AM

readable but it sucks...

guest
You may want to rate the tab now too:
select rating
Wanna post a correction for this tab? Suggest correction