Oops, an error
Loading. Please wait.

Bones bass

version 1
version 1

Whole song

Interactive

by Editors
5,778 views 6 this week
2 commentsread comments
1 2 3 4 5
x 4
add to favorites
×
Save as Personal and add changes to this tab that will be seen only by you. Learn more ›
×
You can save this tab as Personal to edit and correct it or add notes. All changes will be seen only by you. Learn more »
launch autoscroll
font size
0
reset
guitar tuner
edit
Autoscroll
slow
fast
+/-
esc
set tempo
stop
Author
Difficulty
#----------------------------------PLEASE NOTE---------------------------------#
#This file is the author's own work and represents their interpretation of the #
#song. You may only use this file for private study, scholarship, or research. #
#------------------------------------------------------------------------------##
From: "Bugsan" <>
Editors - Bones, bass tabs
=======================================


Song's structure :
==================

A x2    (intro)
B       (How come you're always...)
A x2    (Retreat, retreat...)
C x2    (In the end all you can hope for...)
A x2
B       (A system's put in place...)
C x2    (Retreat, retreat...)

D x2    (Bones, starved of flesh...)
A x4    (Bones, starved of flesh...)
A x4    (I watch as yoru eyes show off...)


Pattern A :
===========

G||------------------|--------------------|-----------------|------------------||
D||*-----------------|--------------------|-----------------|-----------------*||
A||*-5---5---5-9-9-9-|-9---9---9-12-12-12-|-----------------|-----------------*||
E||------------------|--------------------|-7---7---7-5-5-5-|-7---7---7-5-5-5--||


Pattern B :
===========

G||------------------|-----------------|-----------------|-----------------|
D||*-----------------|-----------------|-9-9-9-9-9-9-9-9-|-9-9-9-9-9-9-9-9-|
A||*-5-5-5-5-5-5-5-5-|-9-9-9-9-9-9-9-9-|-----------------|-----------------|
E||------------------|-----------------|-----------------|-----------------|

G||-----------------|-----------------|-----------------|------------------||
D||-----------------|-----------------|-----------------|-----------------*||
A||-5-5-5-5-5-5-5-5-|-9-9-9-9-9-9-9-9-|-2-2-2-2-2-2-2-2-|-2-2-2-2-2-2-2-2-*||
E||-----------------|-----------------|-----------------|------------------||


Pattern C :
===========

G||------------------|-----------------|-----------------|-----------------|
D||*-----------------|-----------------|-----------------|-----------------|
A||*-7-7-7-7-7-7-7-7-|-7-7-7-7-7-7-7-7-|-2-2-2-2-2-2-2-2-|-2-2-2-2-2-2-2-2-|
E||------------------|-----------------|-----------------|-----------------|


G||-----------------|-----------------|-----------------|------------------||
D||-----------------|-----------------|-----------------|-----------------*||
A||-5-5-5-5-5-5-5-5-|-5-5-5-5-5-5-5-5-|-7-7-7-7-7-7-7-7-|-7-7-7-7-7-7-7-7-*||
E||-----------------|-----------------|-----------------|------------------||


Pattern D :
===========

G||--------------|--------------|--------------|--------------|
D||*-------------|--------------|--------------|--------------|
A||*-5--5--5--5--|--5--5--5--5--|--4--4--4--4--|--4--4--4--4--|
E||--------------|--------------|--------------|--------------|

G||-------------|--------------|--------------|---------------||
D||-------------|--------------|--------------|--------------*||
A||-9--9--9--9--|--9--9--9--9--|--7--7--7--7--|--7--7--7--7--*||
E||-------------|--------------|--------------|---------------||


            
            
Suggest correction
Creating personal tab
Creating personal tab
You can edit any tab online and save it as your Personal.

You can edit, replace or remove any tab part or add personal notes – all changes will be seen only by you.

Personal tabs can be accessed anytime from any device, even offline.
Learn more »
comments
print report bad tab
2 comments total.
0 reply
keneticshark24 135 Jun 08, 2007 12:49 AM

Pattern A is a little bit off in my opinion.

Instead of E|5-5-5, I like to play it on the D|7-7-7. Eh. It just sounds an octave or so higher than E|5.

And I think the beginning 5 to 9 bit to the 12 is a bit different, somehow. I just can't figure out what's going on. I need to go check some lives. >_>;

But other than that, awesome.

0 reply
bugsan 348 Jun 08, 2007 05:59 AM

Ok thanks !

May be i'm wrong.
You can find a live where the bass is clear, at youtube, search for "editors bones oxygen".

guest
You may want to rate the tab now too:
select rating
Wanna post a correction for this tab? Suggest correction