Oops, an error
Loading. Please wait.

Bullets tab

version 2
version 2

Whole song

Interactive

by Editors
8,310 views 1 this week
3 commentsread comments
1 2 3 4 5
x 6
add to favorites
×
Save as Personal and add changes to this tab that will be seen only by you. Learn more ›
×
You can save this tab as Personal to edit and correct it or add notes. All changes will be seen only by you. Learn more »
launch autoscroll
font size
0
reset
how to read this tab
guitar tuner
edit
Autoscroll
slow
fast
+/-
esc
set tempo
stop
Tabbed by Andrew :D

Decided to update this song, bit better than the last blokes i hope.

Chorus/Main Riff Lead Guitar Pt 1
“You don’t need this disease, you don’t, you don’t…”
e|-----------------------------------------------------------------------------|
B|---19-19-19-21-21-21-16-16-17-17-17-16-16-16-17-17---------------------------|
G|-----------------------------------------------------------------------------|
D|-----------------------------------------------------------------------------|
A|-----------------------------------------------------------------------------|
E|-----------------------------------------------------------------------------|

Chorus/Main Riff Lead Guitar Pt 2 (Played Later in Song After Pt 1)
“You don’t need this disease, you don’t, you don’t…”
e|-----------------------------------------------------------------------------|
B|---16-16-16-17-17-17-12-12-14-14-14-12-12-12-14-14---------------------------|
G|-----------------------------------------------------------------------------|
D|-----------------------------------------------------------------------------|
A|-----------------------------------------------------------------------------|
E|-----------------------------------------------------------------------------|

Chorus/Main Riff Rhythm Guitar (listen for strumming pattern)
e|----------------------------------------------|
B|----------------------------------------------|
G|--4--4-4--4--4-4--4-4-4--4-4--4-4-------------|
D|--4--4-4--4--4-4--4-4-4--4-4--4-4-------------|
A|--2--2-2--2--2-2--2-2-2--2-2--2-2-------------|
E|----------------------------------------------|

Verse Rhythm Guitar (Also played at Interlude end (Would you fallllll down!))
e|-----------------------------------------------------------------------------|
B|------7--7--7--7-------------------------------------------------------------|
G|------4--4--4--4---(repeat)--------------------------------------------------|
D|-----------------------------------------------------------------------------|
A|-----------------------------------------------------------------------------|
E|----[7-(x8)-4-(x8)-5-(x16)]-BASS-GUITAR------------------------------------------------|

Verse Lead Guitar
“You don’t need this disease, no not right now…”
e|-----------------------------------------------------------------------------|
B|-----------------------------------------------------------------------------|
G|-----------------------------------------------------------------------------|
D|----13-(x8)---9-(x8)---11-(x16)----------------------------------------------|
A|-----------------------------------------------------------------------------|
E|-----------------------------------------------------------------------------|

Interlude Lead Guitar
e|-------7---7---7---7---11---11---11---11-------------------------------------|
B|----9---9---9---9---9----9----9----9-----------------------------------------|
G|-----------------------------------------------------------------------------|
D|-----------------------------------------------------------------------------|
A|-----------------------------------------------------------------------------|
E|-----------------------------------------------------------------------------|

Interlude Rhythm Guitar
e|-----------------------------------------------------------------------------|
B|----------------------------7---7---7---7------------------------------------|
G|-----------------------------------------------------------------------------|
D|-----------------------------------------------------------------------------|
A|-----------------------------------------------------------------------------|
E|-----------------------------------------------------------------------------|

Interlude Bass
e|-----------------------------------------------------------------------------|
B|-----------------------------------------------------------------------------|
G|-----------------------------------------------------------------------------|
D|-----------------------------------------------------------------------------|
A|--------------------7-7------(repeat)----------------------------------------|
E|-----4-4-4-5-5-5-------------------------------------------------------------|

LYRICS
If something has to change then it always does
If something has to change then it always does

You don't need this disease, not right now
No, you don't need this disease, not right now

Oh you don't need this disease you don't
You don't need this disease you don't
You don't need this disease you don't
You don't need this disease you don't
You don't need this disease you don't
You don't need this disease you don't
You don't need this disease you don't
You don't need this disease

If something has to give then it always will
If something has to give then it always will

You don't need this disease, not right now
No, you don't need this disease
Not right now, no, no, not right now

You don't need this disease you don't
You don't need this disease you don't
You don't need this disease you don't
You don't need this disease you don't
You don't need this disease you don't
You don't need this disease you don't
You don't need this disease you don't
You don't need this disease you don't

Would you fall down
Would you fall down

Oh you don't need this disease you don't
You don't need this disease you don't
You don't need this disease you don't
You don't need this disease you don't
You don't need this disease you don't
You don't need this disease you don't
You don't need this disease you don't
You don't need this disease you don't know
won't,
fall,
down,

You don't need this disease you don't
You don't need this disease you don't
You don't need this disease you don't
You don't need this disease you don't
You don't need this disease you don't
You don't need this disease you don't
You don't need this disease you don't
You don't need this disease you don't 

Ta to DT. Hope tis better than the older one! 
Andrew
andrew.finian@gmail.com

            
            
Suggest correction
Creating personal tab
Creating personal tab
You can edit any tab online and save it as your Personal.

You can edit, replace or remove any tab part or add personal notes – all changes will be seen only by you.

Personal tabs can be accessed anytime from any device, even offline.
Learn more »
comments
print report bad tab
3 comments total.
0 reply
Paul Lambeth 660 Aug 14, 2007 02:09 AM

Looks right to me. :D

0 reply
johnnywhoopwhoo 10 Jan 16, 2008 02:13 AM

spot on!

0 reply
HeavyReverb 112 Mar 08, 2008 02:12 AM

good job

guest
You may want to rate the tab now too:
select rating
Wanna post a correction for this tab? Suggest correction