Oops, an error
Loading. Please wait.

Hyena Tab

405 views 1 this week
1 commentread comment
1 2 3 4 5
2 more votes to show rating
add to favorites
launch autoscroll
font size
0
reset
how to read this tab
guitar tuner
Autoscroll
slow
fast
+/-
esc
set tempo
stop
Help us to improve Ultimate-Guitar.com Take our survey!
×
Author
Difficulty
novice
Hello, this is my first tab. Will keep it updated!
 Help me tabbing this awesome song with your interpretations in the comments.

(/) Slide Up  (\) Slide Down  (h) Hammer On  (p) Pull Off  (b) Bend (r) Release (v) Vibrato

Part 1:

E|------------------------------------|
B|------------------------------------|
G|-----7-----7------------------------|  x4
D|--------------------3--3--2--2------|
A|--5-----5-----------------------3---|
E|--------------3--1------------------|


Part 2:

E|--------------------------------------------------------------------------|
B|--------------------------------------------------------------------------|
G|--------------------------------------------------------------------------|
D|-----5-----5--------3--3--2--2-----------8-----8--------3--3--2--2--------|
A|--------------------------------3-----------------------------------3-----|
E|--3-----3-----3--3--------------------6-----6-----6--5--------------------|

Listen to the song for usage of the parts 1 and 2

Part 3:

E|----------------------------------------|
B|----------------------------------------|
G|--14--12--10--9--7--9--7--7-------------|
D|-----------------------------10--7--10--|  Might use a tremolo to bend 
A|----------------------------------------|  the first three notes down
E|----------------------------------------|

Will update!



Suggest correction
Give kudos to tab author, rate the tab!
1 2 3 4 5
comments
print report bad tab
1 comment total.
0 reply
richard_edwards 123 Nov 14, 2014 01:59 PM

Pretty much there, sounds good!

guest
You may want to rate the tab now too:
select rating
Wanna post a correction for this tab? Suggest correction