Oops, an error
Loading. Please wait.

Munich tab

version 4
version 4

Interactive

by Editors
48,146 views 60 this week
3 commentsread comments
1 2 3 4 5
x 31
add to favorites
×
Save as Personal and add changes to this tab that will be seen only by you. Learn more ›
×
You can save this tab as Personal to edit and correct it or add notes. All changes will be seen only by you. Learn more »
launch autoscroll
font size
0
reset
how to read this tab
guitar tuner
backing track
0:00
0:00
edit
Autoscroll
slow
fast
+/-
esc
set tempo
stop
Tuning: Standard
Capo 3

[Lead Guitar] 
(Intro Riff 1)
e|---10-10-10-6-6-6-----------------6-6--------------------------------------|
B|------------------8-8-8-6-6-6-8-8------------------------------------------|
G|---------------------------------------------------------------------------|
D|---------------------------------------------------------------------------|
A|---------------------------------------------------------------------------|
E|---------------------------------------------------------------------------|

[Intro Riff 2]
e|--10-10-10-10-10-10-10-10-6-6-6-6-6-6-6-6-10-10-10-10-10-10-10-10-10-------|
B|---------------------------------------------------------------------------|
G|---------------------------------------------------------------------------|
D|---------------------------------------------------------------------------|
A|---------------------------------------------------------------------------|
E|---------------------------------------------------------------------------|

e|--6-6-6--------------------------------------------------------------------|
B|--------8-8-8-8-8----------------------------------------------------------|
G|---------------------------------------------------------------------------|
D|---------------------------------------------------------------------------|
A|---------------------------------------------------------------------------|
E|---------------------------------------------------------------------------|

[Verse Riff 1]
e|--10--10-------------------------------------------------------------------|
B|--11--11-------------------------------------------------------------------|
G|--12--12-------------------------------------------------------------------|
D|---------------------------------------------------------------------------|
A|---------------------------------------------------------------------------|
E|---------------------------------------------------------------------------|

[Verse Riff 2]
e|--6--6---------------------------------------------------------------------|
B|--8--8---------------------------------------------------------------------|
G|--7--7---------------------------------------------------------------------|
D|---------------------------------------------------------------------------|
A|---------------------------------------------------------------------------|
E|---------------------------------------------------------------------------|

[Riff before second verse] 
(x2)
e|--6-6-10-10-6-6-10-------------------10-10-10-10-10-10-10-10-6-6-6-------------|
B|-------------------8-8-8-8-8-8-8-8-8-------------------------------8-8-8-8-8---|
G|-------------------------------------------------------------------------------|
D|-------------------------------------------------------------------------------|
A|-------------------------------------------------------------------------------|
E|-------------------------------------------------------------------------------|

[Chorus lead] 
(This is picked very quickly (known as tremolo picking) and you must slide 
each note.)
e|-8--11--15--18--15--11-----------------------------------------------------|
B|---------------------------------------------------------------------------|
G|---------------------------------------------------------------------------|
D|---------------------------------------------------------------------------|
A|---------------------------------------------------------------------------|
E|---------------------------------------------------------------------------|

            
            
Suggest correction
Creating personal tab
Creating personal tab
You can edit any tab online and save it as your Personal.

You can edit, replace or remove any tab part or add personal notes – all changes will be seen only by you.

Personal tabs can be accessed anytime from any device, even offline.
Learn more »
comments
print report bad tab
3 comments total.
0 reply
gregorisgod 51 May 23, 2006 02:20 PM

This is a good tab and sound pretty accurate too!

Thumbs up and sh[B]i[/B]t.

0 reply
-blaze- 148 Oct 31, 2006 04:13 AM

yea. sound great and i learned a new picking style from this song. 5 stars

0 reply
Reint 103 Jul 02, 2007 04:32 AM

In the chorus you can also play a G.
So:
Am C Em (G). But only Em sounds pretty good too,

Good tab!

guest
You may want to rate the tab now too:
select rating
Wanna post a correction for this tab? Suggest correction