Oops, an error
Loading. Please wait.

Papillon Acoustic tab

version 1
version 1

Interactive

by Editors
8,979 views 12 this week
2 commentsread comments
1 2 3 4 5
2 more votes to show rating
add to favorites
×
Save as Personal and add changes to this tab that will be seen only by you. Learn more ›
×
You can save this tab as Personal to edit and correct it or add notes. All changes will be seen only by you. Learn more »
launch autoscroll
font size
0
reset
how to read this tab
guitar tuner
edit
Autoscroll
slow
fast
+/-
esc
set tempo
stop
Author
That´s the acoustic version of the song Papillon. Tom Smith played it for example 
in the German TV show 'MTV Home'. 
Here you can see the vid:
http://www.youtube.com/watch?v=Rc1Pr3Y_QpU

Have fun!


Verse:

     Make your...          You´re...   
                                 own...

|--------------------|-------------------|
|--------------------|-------------------|
|------0-----0----0--|-----0--------0----|
|--------------------|-------------------|
|----7-----7---------|---5---------9-----|
|--0-----0-----0-----|-3-----3---7----7--|

Chorus:

   Darling...         ...don´t put...  guns...             If there...

|------------------------------------|----------------------------------|
|------1-----1---1-----1-----0---0---|-----3-----3---3-----3-----0---0--|
|------------------------------------|----------------------------------|
|----2-----2---------2-----0---------|---4-----4---------4-----0--------|
|--3-----3-----3---3-----2-----2-----|-5-----5-----5---5-----2-----2----|
|------------------------------------|----------------------------------|


            
            
Suggest correction
Creating personal tab
Creating personal tab
You can edit any tab online and save it as your Personal.

You can edit, replace or remove any tab part or add personal notes – all changes will be seen only by you.

Personal tabs can be accessed anytime from any device, even offline.
Learn more »
Give kudos to tab author, rate the tab!
1 2 3 4 5
comments
print report bad tab
2 comments total.
0 reply
Charlie00004444 42 Oct 17, 2009 06:55 AM

Think ya tabbed that upside down maate x

0 reply
roryabc 20 Nov 05, 2009 03:50 AM

Sounds mine to me

guest
You may want to rate the tab now too:
select rating
Wanna post a correction for this tab? Suggest correction