Oops, an error
Loading. Please wait.

Smokers Outside The Hospital Doors bass

version 1
version 1

Whole song

Interactive

by Editors
11,664 views 1 this week
6 commentsread comments
1 2 3 4 5
x 6
add to favorites
×
Save as Personal and add changes to this tab that will be seen only by you. Learn more ›
×
You can save this tab as Personal to edit and correct it or add notes. All changes will be seen only by you. Learn more »
launch autoscroll
font size
0
reset
guitar tuner
backing track
0:00
0:00
edit
Autoscroll
slow
fast
+/-
esc
set tempo
stop
Author
Tabbed By :
e-mail:

Tuning: Drop D

Im sure that this is pretty much perfect, but it is a little hard to hear in places. 
you enjoy, i cant wait for the new album, if the rest is as good as this song its going to 
great


G|----------------------------------------------------------|
D|----------------------------------------------------------|
A|-------------0-2-3-3-3-3-7-7-7-7--------------------------|  x4
D|-5-5-5-5-5-5----------------------------------------------|


G|----------------------------------------------------------|
D|----------------------------------------------------------|
A|-------------0-2-3-3-3-3----------------------------------|  x4
D|-5-5-5-5-5-5-------------2-2-2-2--------------------------|


G|-----------------------------------------------------------|
D|-----------------------------------------------------------|
A|-----------------------------------------------------------|  x4
D|-0-0-0-0-0-0-0-0-2-2-2-2-7-7-7-7---------------------------|


G|-----------------------------------------------------------|
D|-----------------------------------------------------------|
A|-----------------------------------------------------------|
D|-10-10-10-10-10-10-10-10-10-10-10-10-10-10-10--------------|


G|-------------------------------------------------------------------|
D|-----------------0-0-0-0-0-0-0-1-2-2-2-2-2-2-2-0-------------------| x2
A|-------------0-2---------------------------------3-3-3-3-3-3-3-3---|
D|-5-5-5-5-5-5-------------------------------------------------------|


G|----------------------------------------------------------|
D|----------------------------------------------------------|
A|-------------0-2-3-3-3-3----------------------------------|  x6
D|-5-5-5-5-5-5-------------2-2-2-2--------------------------|


G|-----------------------------------------------------------|
D|-----------------------------------------------------------|
A|-----------------------------------------------------------|  x4
D|-0-0-0-0-0-0-0-0-2-2-2-2-7-7-7-7---------------------------|


G|-----------------------------------------------------------|
D|-----------------------------------------------------------|
A|-----------------------------------------------------------|
D|-10-10-10-10-10-10-10-10-10-10-10-10-10-10-10-10-----------|


G|-------------------------------------------------------------------|
D|-----------------0-0-0-0-0-0-0-1-2-2-2-2-2-2-2-0-------------------| x4
A|-------------0-2---------------------------------3-3-3-3-3-3-3-3---|
D|-5-5-5-5-5-5-------------------------------------------------------|

Quiet part with no bass


G|----------------------------------------------------------|
D|----------------------------------------------------------|
A|-------------0-2-3-3-3-3----------------------------------|  x1
D|-5-5-5-5-5-5-------------2-2-2-2--------------------------|


G|----------------------------------------------------------|
D|----------------------------------------------------------|
A|-------------0-2-3-3-3-3-7-7-7-7--------------------------|  x4
D|-5-5-5-5-5-5----------------------------------------------|


G|-------------------------------------------------------------------|
D|-----------------0-0-0-0-0-0-0-1-2-2-2-2-2-2-2-0-------------------|untill
A|-------------0-2---------------------------------3-3-3-3-3-3-3-3---|finish
D|-5-5-5-5-5-5-------------------------------------------------------|

            
            
Suggest correction
Creating personal tab
Creating personal tab
You can edit any tab online and save it as your Personal.

You can edit, replace or remove any tab part or add personal notes – all changes will be seen only by you.

Personal tabs can be accessed anytime from any device, even offline.
Learn more »
comments
print report bad tab
6 comments total. Showing first comments.
+1 reply
thomaswebb 10 Jun 03, 2007 04:16 AM

I'm afraid I disagree with your tab. Isn't it starting on E3?


G|-----------------
D|-----------------
A|------023333/7777
E|333333----------- x4

G|----------------
D|----------------
A|------0233330000
E|333333---------- x4

0 reply
DrBobert 93 Jun 03, 2007 01:52 PM

I'm not sure it's in drop D (play notes on D2 on D3) but I could be mishearing

0 reply
mozzay 194 Jun 05, 2007 04:13 PM

tune your E down to a D then follow from there, when it hits the pre chorus there is no way you can hit the right D otherwise

guest
You may want to rate the tab now too:
select rating
Wanna post a correction for this tab? Suggest correction