Oops, an error
Loading. Please wait.

Smokers Outside The Hospital Doors Acoustic chords

version 3
version 3

Whole song

Interactive

by Editors
17,552 views 66 this week
no commentswrite comment
1 2 3 4 5
x 23
add to favorites
×
Save as Personal and add changes to this tab that will be seen only by you. Learn more ›
×
You can save this tab as Personal to edit and correct it or add notes. All changes will be seen only by you. Learn more »
launch autoscroll
font size
0
reset
transpose
0
reset
display chords
guitar tuner
backing track
0:00
0:00
edit
Autoscroll
slow
fast
+/-
esc
set tempo
stop
Author
Strumming
There is no strumming pattern for this song yet. and get +5 IQ
G (1 measure) C (1/2 measure) Em (1/2 measure)

[Intro]
G    C  Em   x2


G   C    Em        G
Pull the blindfold down
C  Em        G
So your eyes can't see
C         Em           G
Now run as fast as you can
C           Em         G
Through this field of trees


G    C  Em   x2


        (Guitar 2: quickly repetitive percussive strum:)
        E|--15--17--15----|     x2
        B|----------------|
        G|----------------|
        D|----------------|
        A|----------------|
        E|----------------|


G   C    Em     G    
Say goodbye to everyone
 C      Em      G
You have ever known
   C   Em         G          C    Em
You are not gonna see them ever again


D       Em          Am
I can't shake this feeling I've got
D        Em            Am
My dirty hands, have I been in the wars?
D          Em            Am
The saddest thing that I'd ever seen
D            Em          Am       C [long]
Were smokers outside the hospital doors


        (Guitar 2: repetitive percussive strum:)
        E|----------------8------7-------------------|     x3
        B|----7-----8--------------7-----------------|
        G|-------------------------------------------|
        D|-------------------------------------------|
        A|-------------------------------------------|
        E|-------------------------------------------|

        E|----------------8------7-------------------|    
        B|----7-----8--------------8-----------------|
        G|-------------------------------------------|
        D|-------------------------------------------|
        A|-------------------------------------------|
        E|-------------------------------------------|


G       D       Em    C
Someone turn me around
      G     D    Em    C
Can I start this again?

        (Guitar 2:) 
        E|---0-0-5-7----0-7--------------------------|    X2
        B|-----------------8-----0-0-1-0-------------|
        G|-------------------------------2--0--------|
        D|-------------------------------------------|
        A|-------------------------------------------|
        E|-------------------------------------------|
        

G    C  Em   x2


G         C     Em      G
How can we wear our smiles
C   Em               G
With our mouths wide shut
C    Em                     G     C Em
'Cause you stopped us from singin'


D       Em          Am
I can't shake this feeling I've got
D        Em            Am
My dirty hands, have I been in the wars?
D          Em            Am
The saddest thing that I'd ever seen
D            Em          Am       C [long]
Were smokers outside the hospital doors


        (Guitar 2: repetitive percussive strum:)
        E|----------------8------7-------------------|     x3
        B|----7-----8--------------7-----------------|
        G|-------------------------------------------|
        D|-------------------------------------------|
        A|-------------------------------------------|
        E|-------------------------------------------|

        E|----------------8------7-------------------|    
        B|----7-----8--------------8-----------------|
        G|-------------------------------------------|
        D|-------------------------------------------|
        A|-------------------------------------------|
        E|-------------------------------------------|


G       D       Em    C
Someone turn me around
      G     D    Em    C
Can I start this again?
   G       D       Em    C
Now someone turn us around
      G     D    Em    C    G [stop]
Can we start this again?


        (Guitar 2:) 
        E|---0-0-5-7----0-7--------------------------|    X2
        B|-----------------8-----0-0-1-0-------------|
        G|-------------------------------2--0--------|
        D|-------------------------------------------|
        A|-------------------------------------------|
        E|-------------------------------------------|


RING:
       G          Am         Em      C
We've all been changed from what we were
     G             Am         Em      C
Our broken hearts left smashed on the floor
     G          Am         Em      C
I can’t believe you if I can’t hear you


STRUM:
G    C  Em   x2


       G          Am         Em      C
We've all been changed from what we were
     G           Am         Em      C
Our broken hearts smashed on the floor


        (Guitar 2: quickly repetitive percussive strum:)
        E|--15--17--15----|     x2
        B|----------------|
        G|----------------|
        D|----------------|
        A|----------------|
        E|----------------|


G       D       Em    C
Someone turn me around
      G     D    Em    C
Can I start this again?
   G       D       Em    C
Now someone turn us around
      G     D    Em    C  [play & stop]
Can we start this again?


        (Guitar 2:) 
        E|---0-0-5-7----0-7--------------------------|    X2
        B|-----------------8-----0-0-1-0-------------|
        G|-------------------------------2--0--------|
        D|-------------------------------------------|
        A|-------------------------------------------|
        E|-------------------------------------------|



NOTE: I've made this transcription using YouTuber "SteelyToob"'s version and my 
hearing. I couldn't find a satisfying or clear transcription on the internet yet, 
so I thought it was high time for having one. Compatible with this version:
https://www.youtube.com/watch?v=qjk6_CBkEDo

            
            
Suggest correction
Creating personal tab
Creating personal tab
You can edit any tab online and save it as your Personal.

You can edit, replace or remove any tab part or add personal notes – all changes will be seen only by you.

Personal tabs can be accessed anytime from any device, even offline.
Learn more »
comments
print report bad tab
guest
You may want to rate the tab now too:
select rating
Wanna post a correction for this tab? Suggest correction