Oops, an error
Loading. Please wait.

Sugar bass

version 1
version 1

Whole song

Interactive

by Editors
7,196 views 12 this week
1 commentread comment
1 2 3 4 5
x 7
add to favorites
×
Save as Personal and add changes to this tab that will be seen only by you. Learn more ›
×
You can save this tab as Personal to edit and correct it or add notes. All changes will be seen only by you. Learn more »
launch autoscroll
font size
0
reset
guitar tuner
backing track
0:00
0:00
edit
Autoscroll
slow
fast
+/-
esc
set tempo
stop
Author
Difficulty
-------------------------------------------------------------------------------
                             Editors - SUGAR
-------------------------------------------------------------------------------
Tabbed by: precistrat
E-mail: acetwo@web.de

Tuning: Standard
Notes: Strong 16th-Groove. Great fun to play. The bassline rocks the whole song.
Quite exhausting though. I added two alternatives for playing the standard groove 
at the bottom of this tab.
Maybe it's more easy for some of you that way.
My first tab. I hope you'll enjoy it.


Intro (8x)

G|---------------------------------|
D|---------------------------------|
A|-2-2-0-2-5-2-----2-2-0-2-5-2-----|
E|-------------5-2-------------5-2-|


Verse

G|---------------------------------|---------------------------------|
D|---------------------------------|---------------------------------|
A|-2-2-0-2-5-2-----2-2-0-2-5-2-----|-2-2-0-2-5-2-----2-2-0-2-5-2-----|
E|-------------5-2-------------5-2-|-------------5-2-------------5-2-|

G|---------------------------------|---------------------------------|
D|---------------------------------|---------------------------------|
A|---------3---------------3-------|-2-2-0-2-5-2-----2-2-0-2-5-2-----|
E|-5-5-3-5---5-3-0-5-5-3-5---5-3-0-|-------------5-2-------------5-2-|

G|---------------------------------|
D|---------------------------------|
A|-2-2-0-2-5-2-----2-2-0-2-5-2-----|
E|-------------5-2-------------5-2-|

G|---------------------------------|---------------------------------|
D|---------------------------------|---------------------------------|
A|-2-2-0-2-5-2-----2-2-0-2-5-2-----|-2-2-0-2-5-2-----2-2-0-2-5-2-----|
E|-------------5-2-------------5-2-|-------------5-2-------------5-2-|

G|---------------------------------|---------------------------------|
D|---------------------------------|---------------------------------|
A|---------3---------------3-------|-2-2-0-2-5-2-----2-2-0-2-5-2-----|
E|-5-5-3-5---5-3-0-5-5-3-5---5-3-0-|-------------5-2-------------5-2-|


Chorus ("There's sugar on your soul...")

G|---------------------------------|---------------------------------|
D|-2-2-0-2-5-2-----2-2-0-2-5-2-----|---------------------------------|
A|-------------5-2-------------5-2-|-3-3---3-6-3-----3-3---3-6-3-----|
E|---------------------------------|-----6-------6-3-----6-------6-3-|

G|---------------------------------|---------------------------------|
D|---------------------------------|---------------------------------|
A|-5-5---5-8-5-----5-5---5-8-5-----|-2-2-0-2-5-2-----2-2-0-2-5-2-----|
E|-----8-------8-5-----8-------8-5-|-------------5-2-------------5-2-|

G|---------------------------------|---------------------------------|
D|-2-2-0-2-5-2-----2-2-0-2-5-2-----|---------------------------------|
A|-------------5-2-------------5-2-|-3-3---3-6-3-----3-3---3-6-3-----|
E|---------------------------------|-----6-------6-3-----6-------6-3-|

G|---------------------------------|---------------------------------|
D|---------------------------------|---------------------------------|
A|-5-5---5-8-5-----5-5---5-8-5-----|-2-2-0-2-5-2-----2-2-0-2-5-2-----|
E|-----8-------8-5-----8-------8-5-|-------------5-2-------------5-2-|

G|---------------------------------|
D|---------------------------------|
A|---------3---------------3-------|
E|-5-5-3-5---5-3-0-5-5-3-5---5-3-0-|

G|--------------rest---------------|---------------rest--------------|
D|---------------------------------|---------------------------------|
A|---------------------------------|---------------------------------|
E|---------------------------------|---------------------------------|


Verse 2 (almost similar to Verse 1, but one bar more at the end)

G|---------------------------------|---------------------------------|
D|---------------------------------|---------------------------------|
A|-2-2-0-2-5-2-----2-2-0-2-5-2-----|-2-2-0-2-5-2-----2-2-0-2-5-2-----|
E|-------------5-2-------------5-2-|-------------5-2-------------5-2-|

G|---------------------------------|---------------------------------|
D|---------------------------------|---------------------------------|
A|---------3---------------3-------|-2-2-0-2-5-2-----2-2-0-2-5-2-----|
E|-5-5-3-5---5-3-0-5-5-3-5---5-3-0-|-------------5-2-------------5-2-|

G|---------------------------------|
D|---------------------------------|
A|-2-2-0-2-5-2-----2-2-0-2-5-2-----|
E|-------------5-2-------------5-2-|

G|---------------------------------|---------------------------------|
D|---------------------------------|---------------------------------|
A|-2-2-0-2-5-2-----2-2-0-2-5-2-----|-2-2-0-2-5-2-----2-2-0-2-5-2-----|
E|-------------5-2-------------5-2-|-------------5-2-------------5-2-|

G|---------------------------------|---------------------------------|
D|---------------------------------|---------------------------------|
A|---------3---------------3-------|-2-2-0-2-5-2-----2-2-0-2-5-2-----|
E|-5-5-3-5---5-3-0-5-5-3-5---5-3-0-|-------------5-2-------------5-2-|

G|---------------------------------|
D|---------------------------------|
A|-2-2-0-2-5-2-----2-2-0-2-5-2-----|
E|-------------5-2-------------5-2-|


Chorus 2

G|---------------------------------|---------------------------------|
D|-2-2-0-2-5-2-----2-2-0-2-5-2-----|---------------------------------|
A|-------------5-2-------------5-2-|-3-3---3-6-3-----3-3---3-6-3-----|
E|---------------------------------|-----6-------6-3-----6-------6-3-|

G|---------------------------------|---------------------------------|
D|---------------------------------|---------------------------------|
A|-5-5---5-8-5-----5-5---5-8-5-----|-2-2-0-2-5-2-----2-2-0-2-5-2-----|
E|-----8-------8-5-----8-------8-5-|-------------5-2-------------5-2-|

G|---------------------------------|---------------------------------|
D|-2-2-0-2-5-2-----2-2-0-2-5-2-----|---------------------------------|
A|-------------5-2-------------5-2-|-3-3---3-6-3-----3-3---3-6-3-----|
E|---------------------------------|-----6-------6-3-----6-------6-3-|

G|---------------------------------|---------------------------------|
D|---------------------------------|---------------------------------|
A|-5-5---5-8-5-----5-5---5-8-5-----|-2-2-0-2-5-2-----2-2-0-2-5-2-----|
E|-----8-------8-5-----8-------8-5-|-------------5-2-------------5-2-|

G|---------------------------------|---------------------------------|
D|---------------------------------|---------------------------------|
A|---------3---------------3-------|---------3---------------3-------|
E|-5-5-3-5---5-3-0-5-5-3-5---5-3-0-|-5-5-3-5---5-3-0-5-5-3-0---5-3-0-|


Instrumental (8x)

G|---------------------------------|
D|---------------------------------|
A|-2-2-0-2-5-2-----2-2-0-2-5-2-----|
E|-------------5-2-------------5-2-|


Interlude ("There's sugar on your soooooooooooooooooooooooul.")

G|---------------------------------|---------------------------------|
D|-2-2-0-2-5-2-----2-2-0-2-5-2-----|---------------------------------|
A|-------------5-2-------------5-2-|-3-3---3-6-3-----3-3---3-6-3-----|
E|---------------------------------|-----6-------6-3-----6-------6-3-|

G|---------------------------------|---------------------------------|
D|---------------------------------|---------------------------------|
A|-5-5---5-8-5-----5-5---5-8-5-----|-2-2-0-2-5-2-----2-2-0-2-5-2-----|
E|-----8-------8-5-----8-------8-5-|-------------5-2-------------5-2-|

G|---------------------------------|---------------------------------|
D|-2-2-0-2-5-2-----2-2-0-2-5-2-----|---------------------------------|
A|-------------5-2-------------5-2-|-3-3---3-6-3-----3-3---3-6-3-----|
E|---------------------------------|-----6-------6-3-----6-------6-3-|

G|---------------------------------|---------------------------------|
D|---------------------------------|---------------------------------|
A|-5-5---5-8-5-----5-5---5-8-5-----|-2-2-0-2-5-2-----2-2-0-2-5-2-----|
E|-----8-------8-5-----8-------8-5-|-------------5-2-------------5-2-|


Chorus 3

G|---------------------------------|---------------------------------|
D|-2-2-0-2-5-2-----2-2-0-2-5-2-----|---------------------------------|
A|-------------5-2-------------5-2-|-3-3---3-6-3-----3-3---3-6-3-----|
E|---------------------------------|-----6-------6-3-----6-------6-3-|

G|---------------------------------|---------------------------------|
D|---------------------------------|---------------------------------|
A|-5-5---5-8-5-----5-5---5-8-5-----|-2-2-0-2-5-2-----2-2-0-2-5-2-----|
E|-----8-------8-5-----8-------8-5-|-------------5-2-------------5-2-|

G|---------------------------------|---------------------------------|
D|-2-2-0-2-5-2-----2-2-0-2-5-2-----|---------------------------------|
A|-------------5-2-------------5-2-|-3-3---3-6-3-----3-3---3-6-3-----|
E|---------------------------------|-----6-------6-3-----6-------6-3-|

G|---------------------------------|---------------------------------|
D|---------------------------------|---------------------------------|
A|-5-5---5-8-5-----5-5---5-8-5-----|-2-2-0-2-5-2-----2-2-0-2-5-2-----|
E|-----8-------8-5-----8-------8-5-|-------------5-2-------------5-2-|

G|---------------------------------|---------------------------------|
D|---------------------------------|---------------------------------|
A|---------3---------------3-------|---------3---------------3-------|
E|-5-5-3-5---5-3-0-5-5-3-5---5-3-0-|-5-5-3-5---5-3-0-5-5-3-0---5-3-0-|


Outro (14x)

G|---------------------------------|
D|---------------------------------|
A|-2-2-0-2-5-2-----2-2-0-2-5-2-----|
E|-------------5-2-------------5-2-|


Very last bar ("I want you to realize, when I'm gone.")

G|---------------------------------|
D|---------------------------------|
A|---------3---------------3-------|
E|-5-5-3-5---5-3-0-5-5-3-5---5-3-0-|



-----------------------------------------------

Alternative ways of playing the standard bassline:

G|---------------------------------|
D|---------------------------------|
A|-2-2-0-2-5-2-0---2-2-0-2-5-2-0---|
E|---------------2---------------2-|


G|---------------------------------|
D|---------0---------------0-------|
A|-2-2-0-2---2-0---2-2-0-2---2-0---|
E|---------------2---------------2-|



| /  slide up
| \  slide down
| h  hammer-on
| p  pull-off
| ~  vibrato
| +  harmonic
| x  Mute note
===============================================================================
Suggest correction
Creating personal tab
Creating personal tab
You can edit any tab online and save it as your Personal.

You can edit, replace or remove any tab part or add personal notes – all changes will be seen only by you.

Personal tabs can be accessed anytime from any device, even offline.
Learn more »
comments
print report bad tab
1 comment total.
0 reply
abernardmoulin 55 Jun 29, 2014 02:22 PM

Thanks man! It's fantastic.
And yep, it's quite tired to play this song, but thank you man!

guest
You may want to rate the tab now too:
select rating
Wanna post a correction for this tab? Suggest correction