Oops, an error
Loading. Please wait.

The Phone Book Live tab

version 2
version 2

Whole song

by Editors
517 views 3 this week
1 commentread comment
1 2 3 4 5
2 more votes to show rating
add to favorites
×
Save as Personal and add changes to this tab that will be seen only by you. Learn more ›
×
You can save this tab as Personal to edit and correct it or add notes. All changes will be seen only by you. Learn more »
launch autoscroll
font size
0
reset
how to read this tab
guitar tuner
edit
Autoscroll
slow
fast
+/-
esc
set tempo
stop
-------------------------------------------------------------------------------
                             Editors - The Phone Book (Live)
-------------------------------------------------------------------------------

Tuning: Half-Step Down - Eb Ab Db Gb Bb eb
Relative to "capo 1" acoustic
Tab based on their Sziget 2013 performance: https://www.youtube.com/watch?v=eNG0UwCUtnM

Solo guitar

  "What's that over your shoulder?..."
e|-16--17--19--21--16--17--12--10--16--17--19--21--16--17--12--10--9--9--10--10|
B|-----------------------------------------------------------------------------|
G|-----------------------------------------------------------------------------|
D|-----------------------------------------------------------------------------|
A|-----------------------------------------------------------------------------|
E|-----------------------------------------------------------------------------|

  "Staaaaaaaay wiiiiiiiiith meeeeeee...."
e|---------------------------------------------|
B|-2-3-2-0-----2-------------------------------|
G|---------2-4---2~----------------------------|   PLAY IT 8X
D|---------------------------------------------|  
A|---------------------------------------------|
E|---------------------------------------------|

"What's that over your shoulder?..."
e|-16--17--19--21--16--17--12--10--16--17--19--21--16--17--12--10--9--9--10--10|
B|-----------------------------------------------------------------------------|
G|-----------------------------------------------------------------------------|
D|-----------------------------------------------------------------------------|
A|-----------------------------------------------------------------------------|
E|-----------------------------------------------------------------------------|

 "Staaaaaaaay wiiiiiiiiith meeeeeee...."
e|---------------------------------------------|
B|-2-3-2-0-----2-------------------------------|
G|---------2-4---2~----------------------------|   PLAY IT 8X
D|---------------------------------------------|  
A|---------------------------------------------|
E|---------------------------------------------|

 "La lalaaaa lalaaaa..."
e|-------0----9----12-9-------0--------------------|
B|----10---10---10---------10------12--10--9--10---|
G|-11-------------------11------11-----------------|
D|-------------------------------------------------|
A|-------------------------------------------------|
E|-------------------------------------------------|

  Then,
e|-------------------------------------------------------------------------------------|
B|------------------------------5---2~----------------------------------------0---0----|
G|-11b13r11-11-11b13r11-6~--2-4---4-----9b11r9--9b11r9--9b11r9--9b11r9--6~--2---4---6~-|
D|-------------------------------------------------------------------------------------|
A|-------------------------------------------------------------------------------------|
E|-------------------------------------------------------------------------------------|

e|--------------------------------------------|
B|------------------------------5---2~---3----|
G|-11b13r11-11-11b13r11-6~--2-4---4--------2~-|
D|--------------------------------------------|
A|--------------------------------------------|
E|--------------------------------------------|

  "It ends with a kiss..."
e|-------------------------------------------------------------------------------------------|
B|-------------------------------------------------------------------------------------------|
G|-2/4-4~--4/6-6~--6/9-9~-9-7-9-7-6-2~--2/4-4~--4/6-6~--6/9-9~-9-7-9-7-6-2~---2/4-4~--4/6-6~-|
D|-------------------------------------------------------------------------------------------|
A|-------------------------------------------------------------------------------------------|
E|-------------------------------------------------------------------------------------------|

 "Staaaaaaaay wiiiiiiiiith meeeeeee...."
e|---------------------------------------------|
B|-2-3-2-0-----2-------------------------------|
G|---------2-4---2~----------------------------|   PLAY IT 8X 
D|---------------------------------------------|  
A|---------------------------------------------|
E|---------------------------------------------|


 "Keeeeeeeeeeeeeeep wiiiiiiiiith meeeeeee...."
e|---------------------------------------------|
B|-2-3-2-0-----2-------------------------------|
G|---------2-4---2~----------------------------|   PLAY IT 8X
D|---------------------------------------------|  
A|---------------------------------------------|
E|---------------------------------------------|

 "La lalaaaa lalaaaa..."
e|-------0----9----12-9-------0--------------------|
B|----10---10---10---------10------12--10--9--10---|
G|-11-------------------11------11-----------------|
D|-------------------------------------------------|    4x
A|-------------------------------------------------|
E|-------------------------------------------------|


************************************

| /   slide up
| ~   vibrato
| b   Bend
| br  Bend release
| brb Bend release bend

************************************

            
            
Suggest correction
Creating personal tab
Creating personal tab
You can edit any tab online and save it as your Personal.

You can edit, replace or remove any tab part or add personal notes – all changes will be seen only by you.

Personal tabs can be accessed anytime from any device, even offline.
Learn more »
Give kudos to tab author, rate the tab!
1 2 3 4 5
comments
print report bad tab
1 comment total.
+1 reply
egg-marteeni 835 Apr 06, 2017 11:32 AM

Excellent tab! However, the 'la,la,la' sections don't sound too good to me, I've submitted a correction that for the most part solves this I think. Apart from that, great job!

guest
You may want to rate the tab now too:
select rating
Wanna post a correction for this tab? Suggest correction