Oops, an error
Loading. Please wait.

This Is Not Here tab

134 views 1 this week
1 commentread comment
1 2 3 4 5
3 more votes to show rating
add to favorites
×
Save as Personal and add changes to this tab that will be seen only by you. Learn more ›
×
You can save this tab as Personal to edit and correct it or add notes. All changes will be seen only by you. Learn more »
launch autoscroll
font size
0
reset
how to read this tab
guitar tuner
edit
Autoscroll
slow
fast
+/-
esc
set tempo
stop
Difficulty
intermediate
      :Edna's Goldfish:
      -This is Not Here-
   ~Before you Knew Better~

Song is pretty simple, play the bar chords in ska style and the power chords are distored.
Any probs contact: Azwethinkweiz.mail@gmail.com
Enjoy, i think its pretty much spot on.

Intro & Verse:

Seems like I just learned to care
I know that you will but don't you dare
Point your stare 

    E  Cm
              
e|-----3-x-3-x-3-x-3-x--|
B|-----4-x-4-x-4-x-4-x--|
G|--8--5-x-5-x-5-x-5-x--| X2
D|--8--5-x-5-x-5-x-5-x--| 
A|--6--3-x-3-x-3-x-3-x--|
E|-----3-x-3-x-3-x-3-x--|
         
       Ska Chords

Bridge:

In my direction, the inflection in your voice says
"things aren't working out"
But I've got some doubt... 

    G# A#    G#  A#

e|--4-x-6-x--4-x-6-x--|
B|--4-x-6-x--4-x-6-x--|
G|--5-x-7-x--5-x-7-x--| X2
D|--6-x-8-x--6-x-8-x--|
A|--6-x-8-x--6-x-8-x--|
E|--4-x-6-x--4-x-6-x--|

    Ska Chords

Chorus:

Almost is a dirty word when your 17
Regret can kill you when you turn 20 

    E        C        G#       A#

e|--------------------------------------|
B|--------------------------------------|
G|--8-8-8-8--5-5-5-5--------------------|
D|--8-8-8-8--5-5-5-5--6-6-6-6--8-8-8-8--|
A|--6-6-6-6--3-3-3-3--6-6-6-6--8-8-8-8--|
E|--------------------4-4-4-4--6-6-6-6--|

    Power Chords

Horn Part:

No lyrics, just Horns

    E   Cm  

e|--7-x-3-x--|
B|--9-x-4-x--|
G|--9-x-5-x--| x2
D|--9-x-5-x--|
A|--7-x-3-x--|
E|--7-x-3-x--|

    Ska Chords

Verse 2: Same

Fall asleep in separate rooms
Things are changing fast but you left me too soon 

Bridge 2: Same

To look in my direction, the inflection
In my voice says, "let's try and work it out"
But I've got some doubt 

Chorus 2: Same

Almost is a dirty word when your 17
Regret can kill you when you turn 20 

Horn Part 2: Same

No Lyrics.
Just Horns

Sax Solo:

Just sax then, Whoah-oh etc etc

    E   Cm  

e|--7-x-3-x--|
B|--9-x-4-x--|
G|--9-x-5-x--| x2
D|--9-x-5-x--|
A|--7-x-3-x--|
E|--7-x-3-x--|

    Ska Chords

Breakdown:

But I can't wait that long to hear what happens next
And it's been so long since I've been put to the test

    E  Cm  

e|--7--3--|
B|--9--4--|
G|--9--5--| 
D|--9--5--|
A|--7--3--|
E|--7--3--|

    Just play and hold on.

Chorus 3: Same

Whoa-oh.







ENJOY!
Suggest correction
Creating personal tab
Creating personal tab
You can edit any tab online and save it as your Personal.

You can edit, replace or remove any tab part or add personal notes – all changes will be seen only by you.

Personal tabs can be accessed anytime from any device, even offline.
Learn more »
Give kudos to tab author, rate the tab!
1 2 3 4 5
comments
print report bad tab
1 comment total.
0 reply
IYanoplathizoI 142 Jun 23, 2011 09:19 AM

The chorus
e|--------------------------------------|
B|--------------------------------------|
G|--8-8-8-8-----------------------------|
D|--8-8-8-8--8-8-8-8--6-6-6-6--8-8-8-8--|
A|--6-6-6-6--8-8-8-8--6-6-6-6--8-8-8-8--|
E|-----------6-6-6-6--4-4-4-4--6-6-6-6--|

To my ears.... fixed.

Thanks though, with that its 5/5!

guest
Wanna post a correction for this tab? Suggest correction