Oops, an error
Loading. Please wait.

Lisola Che Non C Tab

3,165 views 3 this week
no commentswrite comment
1 2 3 4 5
1 last vote to show rating
add to favorites
launch autoscroll
font size
0
reset
how to read this tab
guitar tuner
Autoscroll
slow
fast
+/-
esc
set tempo
stop
Help us to improve Ultimate-Guitar.com Take our survey!
×
Author
Difficulty
intermediate
Versione modificata della tab di fabo92. Semplicemente, ho tenuto l’arpeggio per 
l’intera canzone e la tonalità è standard, come nella versione del 2001 di Edoardo Bennato.

Modified version of fabo92’s tab. :) I can’t give indications about the rhythm. Just 
listen to the original Bennato’s song (2001 version – standard tuning).


Intro:

E|-----0-------------0---|----------------0-----|
B|-----3--3---3--------3-|------------3-------3-|
G|-----2----2------2-----|-0h2------2-------2---|
D|-0------------0--------|------0---------------|
A|-----------------------|----------------------|
E|-----------------------|----------------------|


Verse:

          D               D                             A7

E|-------0-------|-------0-------|-----------------|--------0-------|
B|---------3---3-|---------3---3-|-----------3-----|-1h2------2---2-|
G|-----2-----2---|-----2-----2---|-------0---0---0-|-0----------0---|
D|-0-------------|-0-------------|-----2-------2---|-2----2---------|
A|---------------|---------------|-0---------------|----------------|
E|---------------|---------------|-----------------|----------------|


          G                G                 D      |
|
E|-------------3-|----------3-------|-------0-------|
B|---------3---3-|----3-----------3-|---------3---3-|
G|------0------0-|-------------0----|-----2-----2---|
D|----0--------0-|------------------|-0-------------|
A|-------------2-|------------------|---------------|
E|-3-----------3-|-3-----3----------|---------------|

                          Bm         	F#7

|-----------------|-----------------|---------------|
|-------3-------3-|-------3---------|---------2-----|
|-----2-------2---|----------4---4--|------3------3-|
|-0---------------|-----4------4----|----2------2---|
|----------4------|-2---------------|---------------|
|-----------------|-----------------|-2-------------|




          G                G                 D                                 D (ending 1)

E|-------------3-|----------3-------|-------0-------|-----------------|-0-----0---------|
B|---------3---3-|----3-----------3-|---------3---3-|-----------3-----|-3-------3---3---|
G|------0------0-|-------------0----|-----2-----2---|-------0---0---0-|-2---2-----2-----|
D|----0--------0-|------------------|-0-------------|-----2-------2---|-0-------------0-|
A|-------------2-|------------------|---------------|-0---------------|-----------------|
E|-3-----------3-|-3-----3----------|---------------|-----------------|-----------------|


From 2nd verse on, the Verse ends with (ending 2):

	D (ending 2)

E|------2p0---------|
B|-3--------3---3---|
G|-2----------2-----|
D|-0--0-----------0-|
A|------------------|
E|------------------|


Chorus:

	Bm		F#7		Bm	      F#7

E|-----------------|-----------------|-----------------|-----------------|
B|----------3------|---------2-------|----------3------|----------2------|
G|-------4-------3-|------3-------3--|-------4-------3-|-------3-------0-|
D|-----4-------4---|----4------4-----|-----4-------4---|-----4-------4---|
A|-2---------------|-----------------|-2---------------|-----------------|
E|-----------------|-2---------------|-----------------|--2--------------|


	G		D		A                 A

E|----------------|--------0---------|----------------|--------0--------|
B|---------3----3-|-----------3---3--|----------3-----|-1h2------2---0--|
G|------0---------|------2------2----|-------0--0---0-|-0----0-----0----|
D|----0-------0---|--0---------------|-----2------2---|-2---------------|
A|----------------|------------------|-0--------------|-----------------|
E|-3--------------|------------------|----------------|-----------------|


    Em7         A7               Em7               A7               Em7                A7

E|------------------|----------------|-----------------|-----------------|-----------------|
B|---------0------2-|--------2----0--|--------0------2-|--------2----0---|--------0------2-|
G|------0-----------|------0---------|------0----------|------0----------|------0----------|
D|----0-------0h2---|----2------2----|----0------0h2---|----2------2-----|----0------0h2---|
A|--2---------------|--0-------------|--2--------------|--0--------------|--2--------------|
E|------------------|----------------|-----------------|-----------------|-----------------|


    Em7                  A7

E|-------------0------|-------------0----|
B|---------0------0---|---------2--------|
G|------0-----------0-|-------0----------|
D|----0--------0------|-----2-------2----|
A|--2-----------------|--0---------------|
E|--------------------|------------------|



Verse [x2] with (ending 2)

Chorus


Verse:

          D               D                             A7

E|-------0-------|-------0-------|-----------------|--------0-------|
B|---------3---3-|---------3---3-|-----------3-----|-1h2------2---2-|
G|-----2-----2---|-----2-----2---|-------0---0---0-|-0----------0---|
D|-0-------------|-0-------------|-----2-------2---|-2----2---------|
A|---------------|---------------|-0---------------|----------------|
E|---------------|---------------|-----------------|----------------|


          G                G                 D       |
|
E|-------------3-|----------3-------|-------0-------||
B|---------3---3-|----3-----------3-|---------3---3-||
G|------0------0-|-------------0----|-----2-----2---||
D|----0--------0-|------------------|-0-------------||
A|-------------2-|------------------|---------------||
E|-3-----------3-|-3-----3----------|---------------||

                         Bm         	F#7

-----------------|-----------------|---------------|
-------3-------3-|-------3---------|---------2-----|
-----2-------2---|----------4---4--|------3------3-|
-0---------------|-----4------4----|----2------2---|
----------4------|-2---------------|---------------|
-----------------|-----------------|-2-------------|




          G                G                 D      |
|
E|-------------3-|----------3-------|-------0-------|
B|---------3---3-|----3-----------3-|---------3---3-|
G|------0------0-|-------------0----|-----2-----2---|
D|----0--------0-|------------------|-0-------------|
A|-------------2-|------------------|---------------|
E|-3-----------3-|-3-----3----------|---------------|

                           D

|-----------------|-0-----0--------|----------------|
|-----------3-----|-3-------3---3--|----------3---3-|
|-------0---0---0-|-2---2-----2----|-------2--------|
|-----2-------2---|-0--------------|-----0------0---|
|-0---------------|----------------|--3-------------|
|-----------------|----------------|----------------|


   G                A               D                G
E|---------------|----------------|-------0--------|---------------|
B|---------3---3-|----------3---3-|----------3---3-|---------3---3-|
G|------0--------|-------0--------|-----2------2---|------0--------|
D|----0------0---|-----2------2---|--0-------------|----0------0---|
A|---------------|--0-------------|----------------|---------------|
E|-3-------------|----------------|----------------|-3-------------|


   D                 A                D
E|------0---------|----------------|-------0--------|----------------|
B|---------3---3--|----------3---3-|----------3---3-|----------3---3-|
G|----2------2----|-------0--------|-----2------2---|-------2--------|
D|-0--------------|-----2------2---|--0-------------|-----0------0---|
A|----------------|--0-------------|----------------|--3-------------|
E|----------------|----------------|----------------|----------------|




   G                A               D                G
E|---------------|----------------|-------0--------|---------------|
B|---------3---3-|----------3---3-|----------3---3-|---------3---3-|
G|------0--------|-------0--------|-----2------2---|------0--------|
D|----0------0---|-----2------2---|--0-------------|----0------0---|
A|---------------|--0-------------|----------------|---------------|
E|-3-------------|----------------|----------------|-3-------------|


   D                 A                D
E|------0---------|----------------|--2-------------|
B|---------3---3--|----------3---3-|--3-------------|
G|----2------2----|-------0--------|--2-------------|
D|-0--------------|-----2------2---|--0-------------|
A|----------------|--0-------------|----------------|
E|----------------|----------------|----------------|


Slow down in the ending and play it the way you want… :)
Suggest correction
Give kudos to tab author, rate the tab!
1 2 3 4 5
comments
print report bad tab
guest
You may want to rate the tab now too:
select rating
Wanna post a correction for this tab? Suggest correction