Oops, an error
Loading. Please wait.

Una Ragazza Tab

289 views 3 this week
no commentswrite comment
1 2 3 4 5
please rate
add to favorites
launch autoscroll
font size
0
reset
how to read this tab
guitar tuner
Tab Pro tools
  • play this tab
  • loop segment
  • change instrument
  • show fretboard
  • metronome
Autoscroll
slow
fast
+/-
esc
set tempo
stop
Contributor
Difficulty
intermediate
-----------------------------------------------------------------------------
                          Una ragazza - Edoardo Bennato
-----------------------------------------------------------------------------

Tabbed by: Matteo Grigoletto
Email: matteo.grigoletto@gmail.com

Tuning: Standard
Capo at the 2nd fret (tab refers to the capo as 0)
Tempo: 3/4 - Metronome: 180 beats per minute
The solos of the second guitar are all in F#m


  A      E       A      E       A      E       A      E
e----------0-0------------0-0------------0-0------------0-0--|
B---2-2----0-0-----2-2----0-0-----2-2----0-0-----2-2----0-0--|
G---2-2------------2-2------------2-2------------2-2---------|
D------------------------------------------------------------|
A-0--------------0--------------0--------------0-------------|
E--------0--------------0--------------0--------------0------|


  A      E      D      E      A      D      E
e----------0-0-----------0-0------------------0-0---0-0--|
B---2-2----0-0----3-3----0-0----2-2----3-3----0-0---0-0--|
G---2-2-----------2-2-----------2-2----2-2---------------|
D---------------0--------------------0------------2------|
A-0---------------------------0--------------------------|
E--------0-------------0--------------------0------------|
 Se una ragazza vuole di sera andare sola per strada


  D      E        A      F#m       B           Bm    E
e----------0-0-----------------------------------------0-0----|
B---3-3----0-0------2-2----2-2-------4-4--4-4---3-3----0-0----|
G---2-2-------------2-2----2-2-------4-4--4-4---4-4-----------|
D-0-----------------------------------------------------------|
A-----------------0----------------2-----2-----2--------------|
E--------0---------------2---------------------------0--------|
 non lo puo' fare non e' corretto  che non sia accompagnata


  A      E      D      E      A      D      E
e----------0-0-----------0-0------------------0-0---0-0--|
B---2-2----0-0----3-3----0-0----2-2----3-3----0-0---0-0--|
G---2-2-----------2-2-----------2-2----2-2---------------|
D---------------0--------------------0------------2------|
A-0---------------------------0--------------------------|
E--------0-------------0--------------------0------------|
 Andare sola  per la citta'   mi sembra un fatto normale


  D      E        A      F#m       Bm     E      A     E
e----------0-0--------------------------------------------0-0-|
B---3-3----0-0------2-2----2-2-------3-3----3-3---2-2-----0-0-|
G---2-2-------------2-2----2-2-------4-4----0-0---2-2---------|
D-0-----------------------------------------------------------|
A-----------------0----------------2-------------0------------|
E--------0---------------2----------------0------------0------|
 ma una  ragazza chissa' perche' questo non lo puo' fare


   A      E      D      E      A      D      E
e-----------0-0-----------0-0------------------0-0---0-0------|
B----2-2----0-0----3-3----0-0----2-2----3-3----0-0---0-0------|
G----2-2-----------2-2-----------2-2----2-2-------------------|
D----------------0--------------------0------------2----------|
A--0---------------------------0------------------------------|
E---------0-------------0--------------------0----------------|

Second guitar:
e----7-9-10-9-7------------------7-9-10-9-7-12----------------|
B-10------------10-9-7---7-9--10------------------------------|
G----------------------9--------------------------------------|
D-------------------------------------------------------------|
A-------------------------------------------------------------|
E-------------------------------------------------------------|


  D      E        A      F#m       B           Bm    E
e----------0-0-----------------------------------------0-0----|
B---3-3----0-0------2-2----2-2-------4-4--4-4---3-3----0-0----|
G---2-2-------------2-2----2-2-------4-4--4-4---4-4-----------|
D-0-----------------------------------------------------------|
A-----------------0----------------2-----2-----2--------------|
E--------0---------------2---------------------------0--------|

Second guitar:
e-14--------------9------12---------------9-------------------|
B--------12-----------10-------------9-10---12-10-12----------|
G---------------------------------11-----------------9--------|
D-------------------------------------------------------------|
A-------------------------------------------------------------|
E-------------------------------------------------------------|


  A      E      D     E         A     D      E
e----------0-0-----------0-0--------------------0-0---0-0--|
B---2-2----0-0----3-3----0-0------2-2----3-3----0-0---0-0--|
G---2-2-----------2-2-------------2-2----2-2---------------|
D---------------0----------------------0------------2------|
A-0-----------------------------0--------------------------|
E--------0-------------0----------------------0------------|
 Andare sola per la citta'    e non c'e' niente di male


  D      E        A     F#m       Bm      E      A     A
e----------0-0----------------------------------------------|
B---3-3----0-0------2-2----2-2-------3-3----3-3---2-2---2-2-|
G---2-2-------------2-2----2-2-------4-4----0-0---2-2---2-2-|
D-0---------------------------------------------------------|
A-----------------0----------------2-------------0-----0----|
E--------0---------------2----------------0-----------------|
 ma una  ragazza chissa' perche' questo non lo puo' fare


  Bm            F#m           Bm            F#m
e--------------------------------------------------------------|
B---3-3----3-3----2-2----2-2----3-3----3-3----2-2----2---------|
G---4-4----4-4----2-2----2-2----4-4----4-4----2-2----2---------|
D------------------------------------------------------4-------|
A-2------2--------------------2------2-------------------------|
E---------------2------2--------------------2------2-----------|
 E' un incantesimo strano    che la colpisce da sempre


  D      A      C#7    F#m    D      A     E
e---------------------------------------------0-0---0-0---0-0--0-0-|
B-3-3-3--2-2-2--2-2-2--2-2-2----3-3----2-2----0-0---0-0---0-0--0-0-|
G-2-2-2--2-2-2--4-4-4--2-2-2----2-2----2-2-------------------------|
D-0-0-0--2-2-2--3-3-3--4-4-4--0------------------------------------|
A-0-0-0--0-0-0--4-4-4--4-4-4---------0-----------------------------|
E-------------------------------------------0-----0-----0-----0----|
    mentre    il duemila     non e' piu' tanto lontano

Second guitar:
e-----------------------------5-4-2---------------------------0-2-4-5-|
B------------------------------------5-3-2--------------------0-0-0-0-|
G-------------------------------------------4-------------------------|
D---------------------------------------------------------------------|
A---------------------------------------------------------------------|
E---------------------------------------------------------------------|
                             non e' piu' tanto lontano


  A      E      D     E       A      D      E
e----------0-0-----------0-0------------------0-0---0-0--|
B---2-2----0-0----3-3----0-0----2-2----3-3----0-0---0-0--|
G---2-2-----------2-2-----------2-2----2-2---------------|
D---------------0--------------------0------------2------|
A-0---------------------------0--------------------------|
E--------0-------------0--------------------0------------|
 Tutte le sere rinchiusa in casa ma questa volta ha deciso


  D      E         A     F#m       B           Bm    E
e----------0-0-----------------------------------------0-0----|
B---3-3----0-0------2-2----2-2-------4-4--4-4---3-3----0-0----|
G---2-2-------------2-2----2-2-------4-4--4-4---4-4-----------|
D-0-----------------------------------------------------------|
A-----------------0----------------2-----2-----2--------------|
E--------0---------------2---------------------------0--------|
 e vuole andare per la citta'     sola col suo sorriso


  A      E      D      E      A      D      E
e----------0-0-----------0-0------------------0-0---0-0--|
B---2-2----0-0----3-3----0-0----2-2----3-3----0-0---0-0--|
G---2-2-----------2-2-----------2-2----2-2---------------|
D---------------0--------------------0------------2------|
A-0---------------------------0--------------------------|
E--------0-------------0--------------------0------------|
 Sola per strada col suo sorriso e chi puo' farle male

Second guitar:
e----7-9-10-9-7------------------7-9-10-9-7-12-----------|
B-10------------10-9-7---7-9--10-------------------------|
G----------------------9---------------------------------|
D--------------------------------------------------------|
A--------------------------------------------------------|
E--------------------------------------------------------|


  D      E        A      F#m       Bm      E7     A
e----------0-0---------------------------------------------|
B---3-3----0-0------2-2----2-2-------3--3-----3-3--------2-|
G---2-2-------------2-2----2-2-------4--4-----0-0------2-2-|
D-0-------------------------------------------------2---2--|
A-----------------0----------------2--------------0--------|
E--------0---------------2-----------------0---------------|
 se ci saranno mille ragazze che la vorranno imitare

Second guitar:
e-14--------------9------12---------------14-12-9----------|
B--------12-----------10----------10-12-14--------10-------|
G----------------------------------------------------------|
D----------------------------------------------------------|
A----------------------------------------------------------|
E----------------------------------------------------------|
comments
We did not receive enough feedback on this tab! Please rate:
print report bad tab
1 2 3 4 5
I want to post or [tab]
guest
You may want to rate the tab now too:
select rating
Please do not post tabs as comments. Select "correction" instead!