Oops, an error
Loading. Please wait.

And A Bell Rings Tab

1 view 1 this week
no commentswrite comment
1 2 3 4 5
3 more votes to show rating
add to favorites
launch autoscroll
font size
0
reset
how to read this tab
guitar tuner
Autoscroll
slow
fast
+/-
esc
set tempo
stop
Help us to improve Ultimate-Guitar.com Take our survey!
×
Author
Difficulty
Capo
intermediate
5th fret
[1st Verse / Chorus]

e|-----------------------------------------------------------|
B|--------0-------0-------0-------0--------------------------|
G|------0-------0-------0-------0----------------------------|
D|----2-------2-------5-------5------------------------------|
A|--3-------3-------7-------7--------------------------------|
E|-----------------------------------------------------------|

e|-----------------------------------------------------------|
B|--------0-------0-------0-------0--------------------------|
G|------0-------0-------0-------0----------------------------|
D|----2-------2-------5-------0------------------------------|
A|--3-------3-------7-------5--------------------------------|
E|-----------------------------------------------------------|

[2nd Verse / Chorus]

e|--0----------0-----------0-----------0---------------------|
B|--------0----------0-----------0-----------0---------------|
G|------0----------0-----------0-----------0-----------------|
D|----2----------2-----------5-----------5-------------------|
A|--3----------3-----------7-----------7---------------------|
E|-----------------------------------------------------------|


e|--0----------0-----------0-----------0---------------------|
B|--------0----------0-----------0-----------0---------------|
G|------0----------0-----------0-----------0-----------------|
D|----2----------2-----------5-----------0-------------------|
A|--3----------3-----------7-----------5---------------------|
E|-----------------------------------------------------------|
Suggest correction
Give kudos to tab author, rate the tab!
1 2 3 4 5
comments
print report bad tab
guest
You may want to rate the tab now too:
select rating
Wanna post a correction for this tab? Suggest correction