Oops, an error
Loading. Please wait.

Before Anyone Else Tab

7 views 1 this week
no commentswrite comment
1 2 3 4 5
3 more votes to show rating
add to favorites
launch autoscroll
font size
0
reset
how to read this tab
guitar tuner
Autoscroll
slow
fast
+/-
esc
set tempo
stop
Help us to improve Ultimate-Guitar.com Take our survey!
×
Author
Difficulty
Capo
intermediate
3rd fret
https://soundcloud.com/thedoreens/before-anyone-else-demo

[Intro] 
(0-0:05)
e|---x-----------------------------------------|
B|---8-----------------------------------------|
G|---x-----------------------------------------|
D|---9-----------------------------------------|
A|---10----------------------------------------|
E|---0-----------------------------------------|

[Verse] 
(0:05-0:19)
e|---x-----------------------------------------|
B|---8-----0-----------------------------------|
G|---x-----0-----------------------------------|
D|---9-----2-----------------------------------|
A|---10----3-----------------------------------|
E|---0-----------------------------------------|

[Pre-Chorus]
(0:19-0:43
e|---x------x------x---------------------------|
B|---8------8------8---------------------------|
G|---x------0------0---------------------------|
D|---9------x------9---------------------------|
A|---10-----9------9---------------------------|
E|---0------10-----0---------------------------| x 2

[Chorus] 
(0:43-1:09)
e|---x----------------------------------------|
B|---8------8---------------------------------|
G|---x------0---------------------------------|
D|---9------x---------------------------------|
A|---7------9---------------------------------|
E|---0------10--------------------------------| x 2

[Pre-Verse] 
(1:09-1:21)
e|---x-----------------------------------------|
B|---8-----------------------------------------|
G|---x-----------------------------------------|
D|---9-----------------------------------------|
A|---10----------------------------------------|
E|---0-----------------------------------------| x 2

[Verse 2] 
(1:21-1:33)
e|---x-----------------------------------------|
B|---8-----0-----------------------------------|
G|---x-----0-----------------------------------|
D|---9-----2-----------------------------------|
A|---10----3-----------------------------------|
E|---0-----------------------------------------|

[Pre-Chorus 2] 
(1:33-1:58)
e|---x------x------x---------------------------|
B|---8------8------8---------------------------|
G|---x------0------0---------------------------|
D|---9------x------9---------------------------|
A|---10-----9------9---------------------------|
E|---0------10-----0---------------------------| x 2

[Solo/String Instrumental] 
(1:58-2:23)
e|---x----------------------------------------|
B|---8------8---------------------------------|
G|---x------0---------------------------------|
D|---9------x---------------------------------|
A|---7------9---------------------------------|
E|---0------10--------------------------------| x 2

[Chorus 2] 
(2:23-2:47)
e|---x----------------------------------------|
B|---8------8---------------------------------|
G|---x------0---------------------------------|
D|---9------x---------------------------------|
A|---7------9---------------------------------|
E|---0------10--------------------------------| x 2

[Breakdown] 
(2:47-3:11)
e|---x----------------------------------------|
B|---8------8---------------------------------|
G|---x------0---------------------------------|
D|---9------x---------------------------------|
A|---7------9---------------------------------|
E|---0------10--------------------------------| x 2

[Outro] 
(3:11-3:18)
e|---x------x------x---------------------------|
B|---8------8------8---------------------------|
G|---x------0------0---------------------------|
D|---9------x------9---------------------------|
A|---10-----9------9---------------------------|
E|---0------10-----0---------------------------| x 2



************************************

| x   Dead note

************************************
Suggest correction
Give kudos to tab author, rate the tab!
1 2 3 4 5
comments
print report bad tab
guest
You may want to rate the tab now too:
select rating
Wanna post a correction for this tab? Suggest correction