Oops, an error
Loading. Please wait.

Los Momentos Chords

version 1
version 1

Whole song

Interactive

33,972 views 9 this week
1 commentread comment
1 2 3 4 5
x 4
add to favorites
launch autoscroll
font size
0
reset
transpose
0
reset
display chords
guitar tuner
Autoscroll
slow
fast
+/-
esc
set tempo
stop
Help us to improve Ultimate-Guitar.com Take our survey!
×
Difficulty
intermediate
Intro
   Bm       G          D      A          Bm       G          D      A
E|----------3--------|-2---0—-0--------|----------3--------|-2---0—-0--------|
B|-3-----------3-----|----3-3-2—-2-----|-3-----------3-----|----3-3-2—-2-----|
G|----4-------4----0-|---2-------2-----|----4-------4----0-|---2-------2-----|
D|---4----4----------|-0---0----2----2-|---4----4----------|-0---0----2----2-|
A|-2----2------------|--------0----0---|-2----2------------|--------0----0---|
E|----------3----3---|-----------------|----------3----3---|-----------------|


   Bm                                                           G
E|-------------------|--------------------|-2-------2---------|-3-------3--------|
B|-3--------3--------|-2---2-----3--------|----3--------3-----|----0-------0-----|
G|----4--------4-----|--4-----------4-----|--------4--------4-|------------------|
D|---4--------4------|---4-----4---4------|---4-------4-------|---0----0—-0----0-|
A|-2------2-2------2-|-2---------2------2-|-2-------2---------|------------------|
E|------2--------2---|-------2--------2---|------2--------2---|-3----3—-3----3---|
                                     Tu si..lueta   va  caminando           con el

   D                    A                   Em                  Bm
E|-2--------2---------|-0-----------------|-0-------3----2----|---------3--------|
B|-----3--------3-----|-2-—0----0h2-2-----|----0-------0—-5---|-3----------------|
G|---2-----2—-2-----2-|------------2------|---0----0----0—--0-|----4-------4-----|
D|-0--------0---------|---2----2--------2-|-------------------|---4----4—-4----4-|
A|-------0--------0---|-0----0—-0-----0---|-------------------|-2-------2--------|
E|--------------------|-------------------|-0----0—-0---------|------2-------2---|
  al....ma triste y dormi....da,      ya la aurora  no es nada nue...vo pa'tus ojos

    D                  A                    Em                  Bm
E|--2--------2--0----|--------------------|-0-------3---2-----|---------------------|
B|-----3----------3--|-1h0------1h0-------|----0------0---5---|-3--------3----------|
G|----2----2---0-0-0-|----2--------2------|---0----0---0----0-|----4---4--4--4------|
D|--0--------0-------|-----4---4----4---4-|-------------------|---4--------4-----4--|
A|-------0-----------|-------0--------0---|-------------------|-2--------2----------|
E|-------------------|--------------------|-0----0—-0---------|------2---------2----|
  Gran...des y pa'tu   frente;       ya el cie...lo y  sus es..tre..llas se quedaron

    D                   A                   Bm
E|--2--------2—-0----|-------------------|-------------------|--------------------|
B|-----3----------3--|--2--------2-0-----|--3-------3--------|-2---2-----3--------|
G|----2----2---0-0-0-|-----2---------2---|-----4-------4-----|--4-----------4-----|
D|--0--------0-------|----2----2--2-2—-2-|----4----4—-4----4-|---4-----4---4------|
A|-------0-----------|--0--------0-------|--2-------2--------|-2---------2------2-|
E|-------------------|-------0-----------|-------2-------2---|-------2--------2---|
   mu..dos,lejanos y  muertos pa'tu mente ajena.                            Nos ha-

                       G                  D                    A
E|-2-------2---------|-3-------3--------|-2--------2---------|-0-----------------|
B|----3--------3-----|----0-------0-----|-----3--------3-----|-2-—0----0h2-2-----|
G|--------4--------4-|------------------|---2-----2—-2-----2-|------------2------|
D|---4-------4-------|---0----0—-0----0-|-0--------0---------|---2----2--------2-|
A|-2-------2---------|------------------|-------0--------0---|-0----0—-0-----0---|
E|------2--------2---|-3----3—-3----3---|--------------------|-------------------|
 blaron una vez cuando niños,      cuando la vida se muestra entera,         que el                    

   Em                  Bm                  D                  A
E|-0-------3----2----|----------3----------|--2--------2--0----|--------------------|
B|----0-------0—-5---|--3------------------|-----3----------3--|-1h0------1h0-------|
G|---0----0----0—--0-|-----4-------4-------|----2----2---0-0-0-|----2--------2------|
D|-------------------|----4----4—-4-----4--|--0--------0-------|-----4---4----4---4-|
A|-------------------|--2-------2----------|-------0-----------|-------0--------0---|
E|-0----0—-0---------|-------2--------2----|-------------------|--------------------|
  futuro, que cuando grandes,     ahímurieron ya.........los momentos,         sembra-

   Em                  Bm                     D                   A                   
E|-0-------3---2-----|---------------------|--2--------2—-0----|-------------------|
B|----0------0---5---|-3--------3----------|-----3----------3--|--2--------2-0-----|
G|---0----0---0----0-|----4---4--4--4------|----2----2---0-0-0-|-----2---------2---|
D|-------------------|---4--------4-----4--|--0--------0-------|----2----2--2-2—-2-|
A|-------------------|-2--------2----------|-------0-----------|--0--------0-------|
E|-0----0—-0---------|------2---------2----|-------------------|-------0-----------|
  ron     así    su semilla        y tuvimos miedo,temblamos,y en ésto se nos fue la 




   Bm       G          D                 Bm       G          D
E|----------3--------|-2---0—-0--------|----------3--------|-2---0—-0--------|
B|-3-----------3-----|----3-3-2—-2-----|-3-----------3-----|----3-3-2—-2-----|
G|----4-------4----0-|---2-------2-----|----4-------4----0-|---2-------2-----|
D|---4----4----------|-0---0----2----2-|---4----4----------|-0---0----2----2-|
A|-2----2------------|--------0----0---|-2----2------------|--------0----0---|
E|----------3----3---|-----------------|----------3----3---|-----------------|
  vida.                            La,la,la...
   
   Bm                                                            G
E|--------------------|--------------------|-2-------2---------|-3-------3--------|
B|-3---------3--------|-3---------3--------|----3--------3-----|----0-------0-----|
G|----4---------4-----|----4---------4-----|--------4--------4-|------------------|
D|---4----4----4----4-|---4----4----4----4-|---4-------4-------|---0----0—-0----0-|
A|-2----2----2----2---|-2----2----2----2---|-2-------2---------|------------------|
E|--------------------|--------------------|------2--------2---|-3----3—-3----3---|
                 
                                  
   D                    A                   Em                  Bm
E|-2--------2---------|-0-----------------|-0-------3----2----|---------3--------|
B|-----3--------3-----|-2-—0----0h2-2-----|----0-------0—-5---|-3----------------|
G|---2-----2—-2-----2-|------------2------|---0----0----0—--0-|----4-------4-----|
D|-0--------0---------|---2----2--------2-|-------------------|---4----4—-4----4-|
A|-------0--------0---|-0----0—-0-----0---|-------------------|-2-------2--------|
E|--------------------|-------------------|-0----0—-0---------|------2-------2---|

    D                  A                    Em                  Bm
E|--2--------2--0----|--------------------|-0-------3---2-----|---------------------|
B|-----3----------3--|-1h0------1h0-------|----0------0---5---|-3--------3----------|
G|----2----2---0-0-0-|----2--------2------|---0----0---0----0-|----4---4--4--4------|
D|--0--------0-------|-----4---4----4---4-|-------------------|---4--------4-----4--|
A|-------0-----------|-------0--------0---|-------------------|-2--------2----------|
E|-------------------|--------------------|-0----0—-0---------|------2---------2----|

    D                   A                   Bm
E|--2--------2—-0----|-------------------|-------------------|--------------------|
B|-----3----------3--|--2--------2-0-----|--3-------3--------|-2---2-----3--------|
G|----2----2---0-0-0-|-----2---------2---|-----4-------4-----|--4-----------4-----|
D|--0--------0-------|----2----2--2-2—-2-|----4----4—-4----4-|---4-----4---4------|
A|-------0-----------|--0--------0-------|--2-------2--------|-2---------2------2-|
E|-------------------|-------0-----------|-------2-------2---|-------2--------2---|
                                                                              Cada
                       G                  D                    A
E|-2-------2---------|-3-------3--------|-2--------2---------|-0-----------------|
B|----3--------3-----|----0-------0-----|-----3--------3-----|-2-—0----0h2-2-----|
G|--------4--------4-|------------------|---2-----2—-2-----2-|------------2------|
D|---4-------4-------|---0----0—-0----0-|-0--------0---------|---2----2--------2-|
A|-2-------2---------|------------------|-------0--------0---|-0----0—-0-----0---|
E|------2--------2---|-3----3—-3----3---|--------------------|-------------------|
  uno aferrado a sus dioses,          productos de toda una historia,         los

   Em                  Bm                  D                  A
E|-0-------3----2----|----------3----------|--2--------2--0----|--------------------|
B|----0-------0—-5---|--3------------------|-----3----------3--|-1h0------1h0-------|
G|---0----0----0—--0-|-----4-------4-------|----2----2---0-0-0-|----2--------2------|
D|-------------------|----4----4—-4-----4--|--0--------0-------|-----4---4----4---4-|
A|-------------------|--2-------2----------|-------0-----------|-------0--------0---|
E|-0----0—-0---------|-------2--------2----|-------------------|--------------------|
 modelan   y  los  destruyen        y según  eso   ordenan sus  vidas;           en la

   Em                  Bm                     D                   A                   
E|-0-------3---2-----|---------------------|--2--------2—-0----|-------------------|
B|----0------0---5---|-3--------3----------|-----3----------3--|--2--------2-0-----|
G|---0----0---0----0-|----4---4--4--4------|----2----2---0-0-0-|-----2---------2---|
D|-------------------|---4--------4-----4--|--0--------0-------|----2----2--2-2—-2-|
A|-------------------|-2--------2----------|-------0-----------|--0--------0-------|
E|-0----0—-0---------|------2---------2----|-------------------|-------0-----------|
 frente les ponen   monedas,    en sus largas manos les cuelgan candados, letreros y

    Bm       G          D                 Bm       G          D
E|-----------3--------|-2---0—-0--------|----------3--------|-2---0—-0----------|
B|--3-----------3-----|----3-3-2—-2-----|-3-----------3-----|----3-3-2—-2-------|
G|º----4-------4----0-|---2-------2-----|----4-------4----0-|---2-------2------º|
D|º---4----4----------|-0---0----2----2-|---4----4----------|-0---0----2----2--º|
A|--2----2------------|--------0----0---|-2----2------------|--------0----0-----|
E|-----------3----3---|-----------------|----------3----3---|-------------------|
 rejas.
Suggest correction
comments
print report bad tab
1 comment total.
0 reply
humbertosoriano 10 Mar 15, 2012 09:59 PM

Artista: Eduardo Gatti
Tema : Los Momentos

Intro
Bm G D A Bm G D A
E|----------3--------|-2---0—-0--------|----------3--------|-2---0—-0--------|
B|-3-----------3-----|----3-3-2—-2-----|-3-----------3-----|----3-3-2—-2-----|
G|----4-------4------|---2-------2-----|----4-------4------|---2-------2-----|
D|---4----4--------5-|-0---0----2----2-|---4----4--------5-|-0---0----2----2-|
A|-2----2------------|--------0----0---|-2----2------------|--------0----0---|
E|----------3----3---|-----------------|----------3----3---|-----------------|

Bm G
E|-------------------|--------------------|-2-------2---------|-2-------2--------|
B|-3--------3--------|-2---------3--------|----3--------3-----|----0-------0-----|
G|----4--------4-----|--4--4--------4-----|--------4--------4-|------------------|
D|---4----4---4----4-|---4-----4---4----4-|---4-------4-------|---0----0—-0----0-|
A|-2--------2--------|-2---------2--------|-2-------2---------|------------------|
E|------2--------2---|-------2--------2---|------2--------2---|-3----3—-3----3---|
Tu si..lueta va caminando con el

D A Em Bm
E|-2--------2---------|-0-----------------|-0-------3----2-0---|------------------|
B|-----3--------3-----|-2-—0----0h2-2-----|----0-------0—------|-3-------3--------|
G|---2-----2—-2-----2-|------------2------|---0----0----0—---0-|----4-------4-----|
D|-0--------0---------|---2----2--------2-|--------------------|---4----4—-4----4-|
A|-------0--------0---|-0----0—-0-----0---|--------------------|-2-------2--------|
E|--------------------|-------------------|-0----0—-0----------|------2-------2---|
al....ma triste y dormi....da, ya la aurora no es nada nue...vo pa'tus ojos

D A Em Bm
E|--2--------2--0----|--------------------|-0-------3---2-0---|---------------------|
B|-----3----------3--|-2p0------2p0-------|----0------0-------|-3--------3----------|
G|----2----2---2-2-2-|----2--------2------|---0----0---0----0-|----4------4--4------|
D|--0--------0-------|-----2---2----2---2-|-------------------|---4----4---4-----4--|
A|-------0-----------|-0-----0--------0---|-------------------|-2--------2----------|
E|-------------------|--------------------|-0----0—-0---------|------2---------2----|
Gran...des y pa'tu frente; ya el cie...lo y sus es..tre..llas se quedaron

D A Bm
E|--2--------2—-0----|-------------------|-------------------|--------------------|
B|-----3----------3--|--2--------2-0-----|--3-------3--------|-2---2-----3--------|
G|----2----2---2-2-2-|-----2---------2---|-----4-------4-----|--4-----------4-----|
D|--0--------0-------|----2----2--2-2—-2-|----4----4—-4----4-|---4-----4---4----4-|
A|-------0-----------|--0----0---0-------|--2-------2--------|-2---------2--------|
E|-------------------|-------------------|-------2-------2---|-------2--------2---|
mu..dos,lejanos y muertos pa'tu mente ajena. Nos ha-

G D A
E|-2-------2---------|-2-------2--------|-2--------2---------|-0-----------------|
B|----3--------3-----|----0-------0-----|-----3--------3-----|-2-—0----0h2-2-----|
G|--------4--------4-|------------------|---2-----2—-2-----2-|------------2------|
D|---4-------4-------|---0----0—-0----0-|-0--------0---------|---2----2--------2-|
A|-2-------2---------|------------------|-------0--------0---|-0----0—-0-----0---|
E|------2--------2---|-3----3—-3----3---|--------------------|-------------------|
blaron una vez cuando niños, cuando la vida se muestra entera, que el



Em Bm D A
E|-0-------3----2-0---|---------------------|--2--------2--0----|--------------------|
B|----0-------0—------|--3-------3----------|-----3----------3--|-2p0------2p0-------|
G|---0----0----0—---0-|-----4-------4-------|----2----2---2-2-2-|----2--------2------|
D|--------------------|----4----4—-4-----4--|--0--------0-------|-----2---2----2---2-|
A|--------------------|--2-------2----------|-------0-----------|-------0--------0---|
E|-0----0—-0----------|-------2--------2----|-------------------|--------------------|
futuro, que cuando grandes, ahímurieron ya.........los momentos, sembra-

Em Bm D A
E|-0-------3---2-0---|---------------------|--2--------2—-0----|-------------------|
B|----0------0-------|-3--------3----------|-----3----------3--|--2--------2-0-----|
G|---0----0---0----0-|----4------4--4------|----2----2---2-2-2-|-----2---------2---|
D|-------------------|---4----4---4-----4--|--0--------0-------|----2----2--2-2—-2-|
A|-------------------|-2--------2----------|-------0-----------|--0----

guest
You may want to rate the tab now too:
select rating
Wanna post a correction for this tab? Suggest correction