Oops, an error
Loading. Please wait.

In The Hall Of The Mountain King Bass

version 3
version 3
18,875 views 12 this week
2 commentsread comments
1 2 3 4 5
x 16
add to favorites
launch autoscroll
font size
0
reset
guitar tuner
×
Best way to learn
"In The Hall Of The Mountain King"
Autoscroll
slow
fast
+/-
esc
set tempo
stop
Author
G|--------------|-------------|---------------2|-0-------0|-------------------|
D|-------0-2---2|-1---1--0---0|-------0-2---2--|---2---2--|-------------------|
A|-0-2-3-----3--|---2------1--|-0-2-3-----3----|-----3----|-------------------|
E|--------------|-------------|----------------|----------|-------------------|

G|--------------|-------------|---------------2|-0-------0|-------------------|
D|-------0-2---2|-1---1--0---0|-------0-2---2--|---2---2--|-------------------|
A|-0-2-3-----3--|---2------1--|-0-2-3-----3----|-----3----|-------------------|
E|--------------|-------------|----------------|----------|-------------------|

G|-----1-2-4-1-4|-5-2-5-4-1-4|-----1-2-4-1-4|-5-2-5-4|-------------------------|
D|-2-4----------|------------|-2-4----------|--------|-------------------------|
A|--------------|------------|--------------|--------|-------------------------|
E|--------------|------------|--------------|--------|-------------------------|

G|-----1-2-4-1-4|-5-2-5-4-1-4|-----1-2-4-1-4|-5-2-5-4|-------------------------|
D|-2-4----------|------------|-2-4----------|--------|-------------------------|
A|--------------|------------|--------------|--------|-------------------------|
E|--------------|------------|--------------|--------|-------------------------|

G|--------------|------------|---------------2|-0-------0|--------------------|
D|-------0-2---2|-1---1-0---0|-------0-2---2--|---2---2--|--------------------|
A|-0-2-3-----3--|---2-----1--|-0-2-3-----3----|-----3----|--------------------|
E|--------------|------------|----------------|----------|--------------------|

G|--------------|-------------|---------------2|-------2--|-------------------|
D|-------0-2---2|-1---1--0---0|-------0-2---2--|-2---2----|-------------------|
A|-0-2-3-----3--|---2------1--|-0-2-3-----3----|---3-----0|-------------------|
E|--------------|-------------|----------------|----------|-------------------|
Suggest correction
comments
print report bad tab
2 comments total.
-1 reply
fercho.wagner 10 Jan 10, 2014 02:55 PM

Why does NO ONE include the ending!?

0 reply
karl.chr 242 Apr 21, 2014 08:08 AM

Nice one! :) Accurate!

guest
You may want to rate the tab now too:
select rating
Wanna post a correction for this tab? Suggest correction