Oops, an error
Loading. Please wait.

Stereo Love tab

version 1
version 1

Whole song

Interactive

108,164 views 15 this week
4 commentsread comments
1 2 3 4 5
x 9
add to favorites
×
Save as Personal and add changes to this tab that will be seen only by you. Learn more ›
×
You can save this tab as Personal to edit and correct it or add notes. All changes will be seen only by you. Learn more »
launch autoscroll
font size
0
reset
how to read this tab
guitar tuner
edit
Autoscroll
slow
fast
+/-
esc
set tempo
stop
Author
Difficulty
Edward Maya - Stereo Love
http://edwardmaya.com
http://www.youtube.com/watch?v=p-Z3YrHJ1sU

C#m               A                E
When you're gonna stop breaking my heart
C#m            A          E  A
I don't wanna be another one
C#m               A            E
Paying for the things I never done
E
Don't let go
B
Don't let go
       A
To my love

C#m               A
Can I get to your soul
C#m                 A
Can you get to my thoughts
C#m                   A      B
Can you promise we won't let go

C#m                    A
All the things that I need
C#m                     A
All the things that you need
C#m               A      B
You can make it feel so real.

C#m            E
Cuz you can't deny
A               E
You've blown my mind
E                   A
When I touch your body
A
I feel I'm loosing control

C#m            E
Cuz you can't deny
A               E
You've blown my mind
E                A
When I see you baby
A
I just don't wanna let go


Accordion melody


E|-----12--12-    E|-----12-----|
B|--9---------    B|--9---------|
G|------------    G|------------|
D|------------ x4 D|------------| x2
A|------------    A|------------|
E|------------    E|------------|

E|-----12-12p11h12--14p12--11h12--9h11------------------|
B|--9----------------------------------12h14--10h12--9--|
G|------------------------------------------------------|
D|------------------------------------------------------|
A|------------------------------------------------------|
E|------------------------------------------------------|

Same chords for the rest of the song.

            
            
Suggest correction
Creating personal tab
Creating personal tab
You can edit any tab online and save it as your Personal.

You can edit, replace or remove any tab part or add personal notes – all changes will be seen only by you.

Personal tabs can be accessed anytime from any device, even offline.
Learn more »
comments
print report bad tab
4 comments total. Showing first comments.
+1 reply
vj100 10 Feb 19, 2010 01:01 PM

A very good tab !

0 reply
Christ12 157 Apr 21, 2010 07:25 AM

Could also be played like that.

E|-----12-12p11h12--14p12--11h12--9h11--7h9--5h7--4-----|
B|--9---------------------------------------------------|
G|------------------------------------------------------|
D|------------------------------------------------------|
A|------------------------------------------------------|
E|------------------------------------------------------|

I find that a bit easier :)

0 reply
Hayaser 103 Apr 22, 2010 02:40 PM

Yup could be played both ways.Don't have a preference though.

guest
You may want to rate the tab now too:
select rating
Wanna post a correction for this tab? Suggest correction