Oops, an error
Loading. Please wait.

Stereo Love tab

version 3
version 3

Whole song

Interactive

2,234 views 3 this week
1 commentread comment
1 2 3 4 5
x 3
add to favorites
×
Save as Personal and add changes to this tab that will be seen only by you. Learn more ›
×
You can save this tab as Personal to edit and correct it or add notes. All changes will be seen only by you. Learn more »
launch autoscroll
font size
0
reset
how to read this tab
guitar tuner
edit
Autoscroll
slow
fast
+/-
esc
set tempo
stop
Author
Difficulty
This is my simple interpretation of Stereo Love by Edward Maya ft. Vika Jigulina 
on Acoustic Guitar...

Capo : 4th fret        

CHORDS : Am  Fma7  C  Em ---> I suggest Playing the chord progressions in an "upbeat" pattern.

--

 For Those Who Want To Know The Accordion Part:

E ||----------------------------|
B ||---1-1-0-1-3-1-0-1-0--------|
G ||--2---------------2-0-2-0---|
D ||-----------------------3-2--|
A ||----------------------------|
E ||----------------------------|

--

 The Intro (Basically Playing the Arpeggios of the 4 Basic Chords Above)

E ||------------|-----0------|------------|------------|
B ||-----1------|----1-1-----|-----1------|-----0------| 
G ||----2-2-----|---2---2----|----0-0-----|----0-0-----| 
D ||---2---2----|--3-----3---|---2---2----|---2---2----|
A ||--0-----0---|------------|--3-----3---|--2-----2---|
E ||------------|------------|------------|------------|
      ooooooh      ooooooh     When ya gonna stop breaking my heart......


E ||------------|-----0------|------------|------------|
B ||-----1------|----1-1-----|-----1------|-----0------| 
G ||----2-2-----|---2---2----|----0-0-----|----0-0-----| 
D ||---2---2----|--3-----3---|---2---2----|---2---2----|
A ||--0-----0---|------------|--3-----3---|--2-----2---|
E ||------------|------------|------------|------------|
       ....................     I don't wanna be another one.......


E ||------------|-----0------|------------|------------|
B ||-----1------|----1-1-----|-----1------|-----0------| 
G ||----2-2-----|---2---2----|----0-0-----|----0-0-----| 
D ||---2---2----|--3-----3---|---2---2----|---2---2----|
A ||--0-----0---|------------|--3-----3---|--2-----2---|
E ||------------|------------|------------|------------|
       .....................    Paying for the things I never done.....


E ||------------|-----0------|------------|------------|
B ||-----1------|----1-1-----|-----1------|-----0------| 
G ||----2-2-----|---2---2----|----0-0-----|----0-0-----| 
D ||---2---2----|--3-----3---|---2---2----|---2---2----|
A ||--0-----0---|------------|--3-----3---|--2-----2---|
E ||------------|------------|------------|------------|
       .................. Don't let go, don't let go, to my love.......

Am
Can I get to your soul? 
Am
Can you get to my thought? 
Am                    C     Em
Can we promise we won't let go?


Am
All the things that I need 
Am
All the things that you need 
Am                C     Em
You can make it feel so real


Am
'Cause you can't deny 
Am
You've blown my mind 
Am
When I touch your body 
C      Em
I feel I'm loosing control


Am
'Cause you can't deny 
Am
You've blown my mind 
Am
When I see you baby 
C      Em
I just don't wanna let go



E ||------------|-----0------|------------|------------|
B ||-----1------|----1-1-----|-----1------|-----0------| 
G ||----2-2-----|---2---2----|----0-0-----|----0-0-----| 
D ||---2---2----|--3-----3---|---2---2----|---2---2----|
A ||--0-----0---|------------|--3-----3---|--2-----2---|
E ||------------|------------|------------|------------|
                     I hate to see you cry Your smile is a beautiful lie...


E ||------------|-----0------|------------|------------|
B ||-----1------|----1-1-----|-----1------|-----0------| 
G ||----2-2-----|---2---2----|----0-0-----|----0-0-----| 
D ||---2---2----|--3-----3---|---2---2----|---2---2----|
A ||--0-----0---|------------|--3-----3---|--2-----2---|
E ||------------|------------|------------|------------|
       .................. I hate to see you cry My love is dying inside...


Am                  Fma7
I can fix all those lies
                C                       Em
Oh baby, baby I run, but I'm running to you 
                 Am                   Fma7
You won't see me cry, I'm hiding inside
               C                         Em
My heart is in pain, but I'm smiling for you


Am
Can I get to your soul? 
Am
Can you get to my thought? 
Am                    C     Em
Can we promise we won't let go?


Am
All the things that I need 
Am
All the things that you need 
Am                C     Em
You can make it feel so real


Am
'Cause you can't deny 
Am
You've blown my mind 
Am
When I touch your body 
C      Em
I feel I'm loosing control


Am
'Cause you can't deny 
Am
You've blown my mind 
Am
When I see you baby 
C      Em
I just don't wanna let go


E ||------------|-----0------|------------|------------|
B ||-----1------|----1-1-----|-----1------|-----0------| 
G ||----2-2-----|---2---2----|----0-0-----|----0-0-----| 
D ||---2---2----|--3-----3---|---2---2----|---2---2----|
A ||--0-----0---|------------|--3-----3---|--2-----2---|
E ||------------|------------|------------|------------|
                              When you're gonna stop breaking my heart?...


E ||------------|-----0------|------------|------------|
B ||-----1------|----1-1-----|-----1------|-----0------| 
G ||----2-2-----|---2---2----|----0-0-----|----0-0-----| 
D ||---2---2----|--3-----3---|---2---2----|---2---2----|
A ||--0-----0---|------------|--3-----3---|--2-----2---|
E ||------------|------------|------------|------------|
       .................. Don't let go, don't let go, to my love

E ||------------|-----0------|------------|------------|
B ||-----1------|----1-1-----|-----1------|-----0------| 
G ||----2-2-----|---2---2----|----0-0-----|----0-0-----| 
D ||---2---2----|--3-----3---|---2---2----|---2---2----|
A ||--0-----0---|------------|--3-----3---|--2-----2---|
E ||------------|------------|------------|------------|
                     I hate to see you cry Your smile is a beautiful lie...


E ||------------|-----0------|------------|------------|
B ||-----1------|----1-1-----|-----1------|-----0------| 
G ||----2-2-----|---2---2----|----0-0-----|----0-0-----| 
D ||---2---2----|--3-----3---|---2---2----|---2---2----|
A ||--0-----0---|------------|--3-----3---|--2-----2---|
E ||------------|------------|------------|------------|
       .................. I hate to see you cry My love is dying inside...

E ||------------|-----0------|------------|------------|
B ||-----1------|----1-1-----|-----1------|-----0------| 
G ||----2-2-----|---2---2----|----0-0-----|----0-0-----| 
D ||---2---2----|--3-----3---|---2---2----|---2---2----|
A ||--0-----0---|------------|--3-----3---|--2-----2---|
E ||------------|------------|------------|------------|
                     I hate to see you cry My love is dying inside...


E ||------------|-----0------|------------|------------|
B ||-----1------|----1-1-----|-----1------|-----0------| 
G ||----2-2-----|---2---2----|----0-0-----|----0-0-----| 
D ||---2---2----|--3-----3---|---2---2----|---2---2----|
A ||--0-----0---|------------|--3-----3---|--2-----2---|
E ||------------|------------|------------|------------|
       .................. I have a feeling inside My love is burning alive


Am                  Fma7
I can fix all those lies
                C                       Em
Oh baby, baby I run, but I'm running to you 
                 Am                   Fma7
You won't see me cry, I'm hiding inside
               C                         Em
My heart is in pain, but I'm smiling for you


               Am                      Fma7
Oh, baby, I'll try to make the things right 
                     C                     Em
I need you more than air when I'm not with you 
                    Am                     Fma7
Please don't ask me why, just kiss me this time 
            C                  Em
My only dream is about you and I


Ending (Slowly Pick):
E ||------------|-----0------|------------|------------0---|
B ||-----1------|----1-1-----|-----1------|-----0------0---| 
G ||----2-2-----|---2---2----|----0-0-----|----0-0-----0---| 
D ||---2---2----|--3-----3---|---2---2----|---2---2----2---|
A ||--0-----0---|------------|--3-----3---|--2-----2---2---|
E ||------------|------------|------------|------------0---|


As I said, this is my own interpretation...!
Thanks & Enjoy!
2012 - Mitch Clark.
Suggest correction
Creating personal tab
Creating personal tab
You can edit any tab online and save it as your Personal.

You can edit, replace or remove any tab part or add personal notes – all changes will be seen only by you.

Personal tabs can be accessed anytime from any device, even offline.
Learn more »
Give kudos to tab author, rate the tab!
1 2 3 4 5
comments
print report bad tab
1 comment total.
0 reply
shredmetal32 10 Jun 28, 2013 10:09 PM

Love this arrangement! Here's what it sounds like in all its glory:

https://www.youtube.com/watch?v=WN-LLDEjtSQ

guest
You may want to rate the tab now too:
select rating
Wanna post a correction for this tab? Suggest correction