Oops, an error
Loading. Please wait.
21,912 views 48 this week
no commentswrite comment
1 2 3 4 5
excellent!
x 15
add to favorites
launch autoscroll
font size
0
reset
transpose
0
reset
display chords
guitar tuner
Autoscroll
slow
fast
+/-
esc
set tempo
stop
Help us to improve Ultimate-Guitar.com Take our survey!
×
Author
-------------------------------------------------------------------------------
                             Fiya Wata- Edward Sharpe And The Magnetic Zeros
-------------------------------------------------------------------------------

Chords Used

     G   F  C
e|---3---1--0-------------------------------------------------------------------|
B|---3---1--1-------------------------------------------------------------------|
G|---0---2--0-------------------------------------------------------------------|
D|---0---3--2-------------------------------------------------------------------|
A|---2---3--3-------------------------------------------------------------------|
E|---3---1--3-------------------------------------------------------------------|


G               F
I'm sending you all of my love
C                   G
You with a heart to feel it (feel it)
           F
You in the light and dark
C                G
With the eyes to see it (see it)

G       F
Love, Go ahead
C            G
Love stand beside us!
       F      C              G
Love is within each heart to guide us 
                        F            C
And I thank the sun for shining that light
(no chords)
And lettin' love blaze like

G
Fire!
F
Water!
C               G
We're all still learning 
         F
The river forgives,
C             G
All tides are turning
                        F
(You know) some say the river won't flow
     C                       G
They say it's gonna stay run dry 
                               F
(You know) well, once more the river will flow
    C                 G
For every time it was dry
                       F        C
We'll all be sharing a river of love
(no chords)
And letting love blaze like 

Fire

e|--------------------------------------------------------------------------|
B|----10b--10br--8--10--8-------------8---10---8-------------8---8----------|
G|-------------------------10--10------------------10--10------------7------|
D|--------------------------------------------------------------------------|
A|--------------------------------------------------------------------------|
E|--------------------------------------------------------------------------|

River, river, river, river
Love like a river, 
The river it flows 
G       F    C           G
However dark or long the night is 
                F   C                 G
Right where you are, that's where the light is

G
My love
F
The sun
C         G
It's your reflection
G
It's true
F
We're one
C              G
We're all each other 
G             F
Lay down your arms
C             G
Lay down your gun 
          F
open your arms
C         G
free your heart
                      F
And know one day I'll see you all
C                 G
farther down this river
                 F           C      G
To a place we've never, ever known (no)
                     F                C             G
Tonight our son will finally know the sound of love delivered
              F                 C      G
To its hidin' place beneath the winter snow
                        F            C
And I thank the sun for shining that light
Suggest correction
comments
print report bad tab
guest
You may want to rate the tab now too:
select rating
Wanna post a correction for this tab? Suggest correction