Oops, an error
Loading. Please wait.

Agent Double O Soul bass

28 views 1 this week
no commentswrite comment
1 2 3 4 5
3 more votes to show rating
add to favorites
×
Save as Personal and add changes to this tab that will be seen only by you. Learn more ›
×
You can save this tab as Personal to edit and correct it or add notes. All changes will be seen only by you. Learn more »
launch autoscroll
font size
0
reset
guitar tuner
edit
Autoscroll
slow
fast
+/-
esc
set tempo
stop
Agent Double ‘O’ Soul
Edwin Starr’s first release in 1965. Failed to chart in UK but became 
A Northern Soul Classic in the seventies. 
Bass Performance Bob Babbitt. Tab by bass50611. This also was a 
First recording for Motown by Bob Babbitt so welcome to my tab
This is how I see it, not exact, more of a simplified version
On the original recording within the outro you can hear 2 basses 
It is alleged that the second bass is James Jamerson.

Intro:
G|--------------------------------------------|
D|--------------------------------------------|
A|------2----------2---2---2------2----2--4-6-|
E|-4---4-------4-4---4---4------4----4--------|

Verse 1:                               (Play This x2)
G|---------------------------------------------|
D|---------------------------------------------|
A|---------------4-5-6-------------------4-5-6-|
E|-4--4-4--4-4--4--------4--4-4--4-4--4--------|

G|------------------------------------------|
D|---------------4-5-6----------------4-5-6-|
A|-4--4-4--4-4--4-------4--4-4--4-4--4------|
E|------------------------------------------|

                                  (Break)
G|----------------------------------|
D|----------------------------------|
A|-6--6-6--6-6--6-6--6-6---4-2-4--6-|
E|----------------------------------|

Chorus:
G|-----------------------------------------------------------------|
D|-----------------------------------------------------------------|
A|-------------------4-5-6---------------4-5-6---------------4-5-6-|
E|-2-3-4--4-4--4-4--4------4--4-4--4-4--4------4--4-4--4-4--4------|

G|---------------------|
D|---------------------|
A|---------------4-5-6-|
E|-4--4-4--4-4--4------|

Verse 2:                               (Play This x2)
G|-------------------------------------------|
D|-------------------------------------------|
A|---------------4-5-6-----------------4-5-6-|
E|-4--4-4--4-4--4--------4--4-4--4-4--4------|

G|-------------------------------------------|
D|---------------4-5-6-----------------4-5-6-|
A|-4--4-4--4-4--4--------4--4-4--4-4--4------|
E|-------------------------------------------|

                                  (Break)
G|----------------------------------|
D|----------------------------------|
A|-6--6-6--6-6--6-6--6-6---4-2-4--6-|
E|----------------------------------|

Chorus:
G|-----------------------------------------------------------------|
D|-----------------------------------------------------------------|
A|-------------------4-5-6---------------4-5-6---------------4-5-6-|
E|-2-3-4--4-4--4-4--4------4--4-4--4-4--4------4--4-4--4-4--4------|

G|---------------------|
D|---------------------|
A|---------------4-5-6-|
E|-4--4-4--4-4--4------|

Bridge 1:                      (Play This Bit x2)
G|-------------------------------------------|
D|---------------4-5-6-----------------------|
A|-4--4-4--4-4--4----------------------4-5-6-|
E|-----------------------4--4-4--4-4--4------|

Bridge 2:
G|--------------------------------------------------------------|
D|--------------------------------------------------------------|
A|--------------------1--2--3--4---------------------1--2--3--4-|
E|-1-1-1-1-1-1-1-1--4-------------1-1-1-1-1-1-1-1--4------------|

                      (Break)
G|------------------------|
D|----------------------1-|
A|-1--1-1--1-1--1-1--1----|
E|------------------------|

                                               (Play This Bit x2)
G|-----------------------------------------------------|
D|-----------------------------------------------------|
A|-----------------------------------------------------|
E|-4-4-4-4-4-4-4-4---4-4-4-4-4-4-4-4---4-4-4-4-4-4-4-4-|

G|-----------------------------------|
D|-----------------------------------|
A|---------------------------1-2-3-4-|
E|-4-4-4-4-4-4-4-4---4-4-4-4---------|

Outro:                                      (Repeat Outro To Fade)
G|-------------------------------------------------------------|
D|-------------------------------------------------------------|
A|---------------4-5-6---------------4-5-6---------------4-5-6-|
E|-4--4-4--4-4--4------4--4-4--4-4--4------4--4-4--4-4--4------|



Suggest correction
Creating personal tab
Creating personal tab
You can edit any tab online and save it as your Personal.

You can edit, replace or remove any tab part or add personal notes – all changes will be seen only by you.

Personal tabs can be accessed anytime from any device, even offline.
Learn more »
Give kudos to tab author, rate the tab!
1 2 3 4 5
comments
print report bad tab
guest
You may want to rate the tab now too:
select rating
Wanna post a correction for this tab? Suggest correction