Oops, an error
Loading. Please wait.

Feels Like Home Tab

version 1
version 1

Whole song

47,024 views 75 this week
1 commentread comment
1 2 3 4 5
excellent!
x 11
add to favorites
launch autoscroll
font size
0
reset
how to read this tab
guitar tuner
Autoscroll
slow
fast
+/-
esc
set tempo
stop
Help us to improve Ultimate-Guitar.com Take our survey!
×
Author
Difficulty
Capo
intermediate
3rd fret
i was looking for this tab EVERYWHERE and couldnt find it so
i thought i would try and figure it out myself! this is my
first tab EVER! its not exactly like the original, but it
sounds pretty anyways!

please comment if i made any misakes and tell me how i did!
Thanks!

Capo 3rd Fret

Intro:
    C       G       C               G               G
e|-----0--------3-----------0---------------3---------------3--------|
B|-1--------3-------1---1-------1---3---3-------3---3---3-------3----|
G|---0---0----0---0---0---0---0---0---0---0---0---0---0---0---0---0--|
D|-------------------------------------------------------------------|
A|-3----------------3------------------------------------------------|
E|----------3-----------------------3---------------3----------------|

    F                F              C               G
e|---------1----------------1---------------0---------------3-------|
B|-1---1-------1----1---1-------1---1---1-------1---3---3-------3---|
G|---2---2---2---2----2---2---2---2---0---0---0---0---0---0---0---0-|
D|-3----------------3-----------------------------------------------|
A|----------------------------------3-------------------------------|
E|--------------------------------------------------3---------------|

Verse 1:

     C      G       C               G               G
e|-----0--------3-----------0---------------3---------------3--------|
B|-1--------3-------1---1-------1---3---3-------3---3---3-------3----|
G|---0---0----0---0---0---0---0---0---0---0---0---0---0---0---0---0--|
D|-------------------------------------------------------------------|
A|-3----------------3------------------------------------------------|
E|----------3-----------------------3---------------3----------------|
  Somethin' in your eyes, makes me wanna lose myself

    F                F              C               G
e|---------1----------------1---------------0---------------3-------|
B|-1---1-------1----1---1-------1---1---1-------1---3---3-------3---|
G|---2---2---2---2----2---2---2---2---0---0---0---0---0---0---0---0-|
D|-3----------------3-----------------------------------------------|
A|----------------------------------3-------------------------------|
E|--------------------------------------------------3---------------|
   Makes me wanna lose myself,   in your arms

     C      G       C               G               G
e|-----0--------3-----------0---------------3---------------3--------|
B|-1--------3-------1---1-------1---3---3-------3---3---3-------3----|
G|---0---0----0---0---0---0---0---0---0---0---0---0---0---0---0---0--|
D|-------------------------------------------------------------------|
A|-3----------------3------------------------------------------------|
E|----------3-----------------------3---------------3----------------|
There's somethin' in your voice, makes my heart beat fast

    F                F              C               G
e|---------1----------------1---------------0---------------3-------|
B|-1---1-------1----1---1-------1---1---1-------1---3---3-------3---|
G|---2---2---2---2----2---2---2---2---0---0---0---0---0---0---0---0-|
D|-3----------------3-----------------------------------------------|
A|----------------------------------3-------------------------------|
E|--------------------------------------------------3---------------|
  Hope this feeling lasts,   the rest of my life

   Em               F               C               Am
e|--------------------------1-----------0-------0-------------------|
B|---------0--------1---1-------1---1-------0---------------1-------|
G|-0---0-------0------2---2---2---2---0---0---0---0-2---2-------2---|
D|---2---2---2---2--3---------------------------------2---2---2---2-|
A|----------------------------------3-------2-------0---------------|
E|-0----------------------------------------------------------------|
If you knew how lonely        my    life   has     been

    F              C               G               G
e|---------1---------------0---------------3---------------3-------|
B|-1---1-------1---1---1-------1---3---3-------3---3---3-------3---|
G|---2---2---2---2---0---0---0---0---0---0---0---0---0---0---0---0-|
D|-3---------------------------------------------------------------|
A|-----------------3-----------------------------------------------|
E|---------------------------------3---------------3---------------|
   And how long I’ve been so alone


   Em               F               C               Am
e|--------------------------1-----------0-------0-------------------|
B|---------0--------1---1-------1---1-------0---------------1-------|
G|-0---0-------0------2---2---2---2---0---0---0---0-2---2-------2---|
D|---2---2---2---2--3---------------------------------2---2---2---2-|
A|----------------------------------3-------2-------0---------------|
E|-0----------------------------------------------------------------|
If you knew how I wanted someone to come       along


    F              C               G               G
e|---------1---------------0---------------3-----------3-----------|
B|-1---1-------1---1---1-------1---3---3-------3---3-----------0---|
G|---2---2---2---2---0---0---0---0---0---0---0---0---0---0-2-----0-|
D|-3---------------------------------------------------------2-----|
A|-----------------3---------------------------------------0---2---|
E|---------------------------------3---------------3---------------|
   And change my life the way you've done                   Feels like

Chorus:
   C               C               G               G
e|---------0---------------0---------------3---------------3-------|
B|-1---1-------1---1---1-------1---3---3-------3---3---3-------3---|
G|---0---0---0---0---0---0---0---0---0---0---0---0---0---0---0---0-|
D|-----------------------------------------------------------------|
A|-3---------------3-----------------------------------------------|
E|---------------------------------3---------------3---------------|
   home to me             Feels like home to me

   F              C               G               G
e|---------1---------------0---------------3-----------3-----------|
B|-1---1-------1---1---1-------1---3---3-------3---3-----------0---|
G|---2---2---2---2---0---0---0---0---0---0---0---0---0---0-2-----0-|
D|-3---------------------------------------------------------2-----|
A|-----------------3---------------------------------------0---2---|
E|---------------------------------3---------------3---------------|
   Feels like I'm all the way back where I come from         Feels like

   C               C               G               G
e|---------0---------------0---------------3---------------3-------|
B|-1---1-------1---1---1-------1---3---3-------3---3---3-------3---|
G|---0---0---0---0---0---0---0---0---0---0---0---0---0---0---0---0-|
D|-----------------------------------------------------------------|
A|-3---------------3-----------------------------------------------|
E|---------------------------------3---------------3---------------|
   home to me             Feels like home to me

   F               C        G       C
e|---------1-----------1--------3-----------0---------------|
B|-1---1-------1---1--------3-------1---1-------1-----------|
G|---2---2---2---2---0---0----0---0---0---0---0---0---------|
D|-3--------------------------------------------------------|
A|-----------------3----------------3-----------------------|
E|--------------------------3-------------------------------|
Feels like I'm all the way back where I belong

Verse 2:
A window breaks, down a long, dark street
And a siren wails in the night
But I'm alright, 'cause I have you here with me
And I can almost see, through the dark there is light

Well, if you knew how much this moment means to me
And how long I've waited for your touch
And if you knew how happy you are making me
I never thought that I'd love anyone so much

Chorus:
It feels like home to me, it feels like home to me
It feels like I'm all the way the back where I come from
It feels like home to me, it feels like home to me
It feels like I'm all the way back where I belong
It feels like I'm all the way back where I belong

The chords are the same for verse 2

Hope your satisfied with my version of the song,
it was as close to the origional as i could get!
Suggest correction new What's this?
You can suggest a correction to this tab. Community and Mods will review your correction and vote to approve or reject it.
comments
print report bad tab
1 comment total.
0 reply
rowmarra 12 wrote on November 26 2014, 04:01 am

amazing really enjoy playing this, thanks 10/10

guest
You may want to rate the tab now too:
select rating
Please do not post tabs as comments. Select "correction" instead!