Oops, an error
Loading. Please wait.

Feels Like Home Tab

version 2
version 2

Whole song

9,742 views 30 this week
no commentswrite comment
1 2 3 4 5
excellent!
x 5
add to favorites
launch autoscroll
font size
0
reset
how to read this tab
guitar tuner
Tab Pro tools
  • play this tab
  • loop segment
  • change instrument
  • show fretboard
  • metronome
×
Best way to learn
"Feels Like Home"
Autoscroll
slow
fast
+/-
esc
set tempo
stop
Contributor
Difficulty
intermediate
-------------------------------------------------------------------------------
Edwina Hayes - Feels Like Home
-------------------------------------------------------------------------------
Tabbed by: Dawn

Tuning: Standard
Capo: 3rd




INTRO

             (Gsus2-
      (C)       G)        (C)                 (Gsus2)         (Gsus2-G)
e|-------------------|---------3-------|---------3-------|---------3-------|
B|-1-----0---3-----0-|-------1-------0-|-------3-------3-|-------3-------0-|
G|-----0---------0---|-----0-------0---|-----0-------0---|-----0-------0---|
D|---2---------0-----|---2-------2-----|---0-------0-----|---0-------0-----|
A|-3---------2-------|-3---------------|-----------------|-----------------|
E|-------------------|-----------------|-3---------------|-3---------------|


         (F)                (F)              (C)             (G-gsus2)
e|---------1-------1-|-------1---------|---------0-------|---------3-------|
B|-------1-------1---|-----1-------1-0-|-------1-------0-|-------3-------0-|
G|---0/2-------2-----|---2-------2-----|-----0-------0---|-----0-------0---|
D|-3---------3-------|-3-------3-------|---2-------2-----|---0-------0-----|
A|-------------------|-----------------|-3---------------|-----------------|
E|-------------------|-----------------|-----------------|-3---------------|




VERSE


            (Gsus2-
      (C)      G)            (C)             (Gsus2)          (Gsus2-G)
e|-------------------|---------3-------|---------3-------|---------3-------|
B|-1-----0---3-----0-|-------1-------0-|-------3-------3-|-------3-------0-|
G|-----0---------0---|-----0-------0---|-----0-------0---|-----0-------0---|
D|---2---------0-----|---2-------2-----|---0-------0-----|---0-------0-----|
A|-3---------2-------|-3---------------|-----------------|-----------------|
E|-------------------|-----------------|-3---------------|-3---------------| 
Something in your eyes, makes me wanna loose myself            makes me wanna 
[There's somethin'in your voice,  makes my heart beat fast]      [hope this] 


         (F)                  (F)             (C)               (G-gsus2)
e|---------1-------1-|-------1---------|---------0-------|---------3-------.||
B|-------1-------1---|-----1-------1-0-|-------1-------0-|-------3-------0-.||
G|---0/2-------2-----|---2-------2-----|-----0-------0---|-----0-------0---.||
D|-3---------3-------|-3-------3-------|---2-------2-----|---0-------0-----.||
A|-------------------|-----------------|-3---------------|-----------------.||
E|-------------------|-----------------|-----------------|-3---------------.|| 
loose myself                  in your arms 
[feeling lasts,                the rest of my life]






        (Em)                (F)           (C)             (Am)       (G) 
e|---------0-------|---------1--------|-----------------|--------------------|
B|-------0-------0-|-------1--------1-|-------1-------0-|-------1-------0----|
G|-----0-------0---|-----2--------2---|-----0-------0---|-----2-------0------|
D|---2-------2-----|---3--------3-----|---2-------0-----|---2-------0--------|
A|-----------------|-3----------------|-3-------2-------|-0------------------|
E|-0---------------|------------------|-----------------|---------3----------| 
  If you knew how lonely          my life       has      been         and how


      (F)               (C)                  (G)             (G)
e|---------1-------|---------0-------|---------3-------|---------3-----------|
B|-------1-------1-|-------1-------0-|-------0-------3-|-------0-------3-----|
G|-----2-------2---|-----0-------0---|-----0-------0---|-----0-------0-------|
D|---3-------3-----|---2-------2-----|---0-------0-----|---0-------0---------|
A|-3---------------|-3---------------|-----------------|---------------------|
E|-----------------|-----------------|-3---------------|-3-------------------|
long           I've been       so alone 



        (Em)             (F)                (C)             (Am)       (G) 
e|---------0-------|---------1--------|-----------------|--------------------|
B|-------0-------0-|-------1--------1-|-------1-------0-|-------1-------0----|
G|-----0-------0---|-----2--------2---|-----0-------0---|-----2-------0------|
D|---2-------2-----|---3--------3-----|---2-------0-----|---2-------0--------|
A|-----------------|-3----------------|-3-------2-------|-0------------------|
E|-0---------------|------------------|-----------------|---------3----------| 
If you knew   how i wanted someone to    come      a-long           and 
    

        (F)               (C)                (G)                    CHORUS
e|---------1-------|---------0-------|---------3--------1-|-------------|
B|-------1-------1-|-------1-------0-|-------0-------0----|-------------|
G|-----2-------2---|-----0-------0---|-----0-------0------|---------0---|
D|---3-------3-----|---2-------2-----|---0-------0--------|-------0---0-|
A|-3---------------|-3---------------|--------------------|-------------|
E|-----------------|-----------------|-3------------------|-------------|
change      my life        the way you've done                  feels like


       (C)               (C)               (G)             (G)
e|---------0-----|---------0--------|---------3------|---------3-------|
B|-------1-------|-------1--------1-|-------3------0-|-------3-------0-|
G|-----0-----0---|-----0-------0----|-----0------0---|-----0-------0---|
D|---3-----3---3-|---3-------2------|---0------0-----|---0-------0-----|
A|-3-------------|-3----------------|----------------|-----------------|
E|---------------|------------------|-3--------------|-3---------------| 
home      to me         feels like    home      to me            feels like im




     (F)       (C)      (Am)                 (G)                (G)     
e|-------1-------0-|------------------|---------3-------|---------3--------|
B|-----1-------1---|-------1-------1--|-------0-------3-|-------0-------3--|
G|---2-------0-----|-----2-------2--2-|-----0-------0---|-----0-------0----|
D|-3-------2-------|---2-------0------|---0-------0-----|---0-------0------|
A|-----------------|-0----------------|-----------------|------------------|
E|-----------------|------------------|-3---------------|-3----------------|
   All      the way back      where i come from               it feels like 

 
        (C)               (C)               (G)             (G)
e|---------0-----|---------0--------|---------3------|---------3-------|
B|-------1-------|-------1--------1-|-------3------0-|-------3-------0-|
G|-----0-----0---|-----0-------0----|-----0------0---|-----0-------0---|
D|---3-----3---3-|---3-------2------|---0------0-----|---0-------0-----|
A|-3-------------|-3----------------|----------------|-----------------|
E|---------------|------------------|-3--------------|-3---------------| 
home      to me         feels like    home      to me            feels like im



     (F)       (C)             (G)            (C)             (C)           
e|-------1-------0-|------------------|---------0-------|---------0--------|
B|-----1-------1---|-----1----------0-|-------1-------1-|-------1-------0--|
G|---2-------0-----|---2---2-----0----|-----0-------0---|-----0-------0----|
D|-3-------2-------|-0---------0------|---2-------2-----|---2-------2------|
A|-----------------|------------------|-3---------------|-3----------------|
E|-----------------|---------3--------|-----------------|------------------|
   All      the way back     where i     belong 





BRIDGE
e|-----1--------0---|------3---------0-|------------------|----------------|
B|-------1--------1-|--------0---------|----------1-----1-|-------1-----1--|
G|---2-------0------|---0----------0---|--------0-----0---|-----0-----0----|
D|-3-------2--------|-0----------0-----|----2/3-----3-----|---2-----2------|
A|------------------|------------------|--3---------------|-3--------------|
E|------------------|----------3-------|------------------|----------------|


VERSE


            (Gsus2-
      (C)      G)            (C)             (Gsus2)          (Gsus2-G)
e|-------------------|---------3-------|---------3-------|---------3-------|
B|-1-----0---3-----0-|-------1-------0-|-------3-------3-|-------3-------0-|
G|-----0---------0---|-----0-------0---|-----0-------0---|-----0-------0---|
D|---2---------0-----|---2-------2-----|---0-------0-----|---0-------0-----|
A|-3---------2-------|-3---------------|-----------------|-----------------|
E|-------------------|-----------------|-3---------------|-3---------------|  
A   window        breaks   down a long dark street            and a
 [but i'm      alright    cause i have you here with me          and i can]


         (F)                  (F)             (C)               (G-gsus2)
e|---------1-------1-|-------1---------|---------0-------|---------3-------.||
B|-------1-------1---|-----1-------1-0-|-------1-------0-|-------3-------0-.||
G|---0/2-------2-----|---2-------2-----|-----0-------0---|-----0-------0---.||
D|-3---------3-------|-3-------3-------|---2-------2-----|---0-------0-----.||
A|-------------------|-----------------|-3---------------|-----------------.||
E|-------------------|-----------------|-----------------|-3---------------.|| 
siren wails                 in the night 
  [almost see              through the dark there is light]






        (Em)                (F)           (C)             (Am)       (G) 
e|---------0-------|---------1--------|-----------------|--------------------|
B|-------0-------0-|-------1--------1-|-------1-------0-|-------1-------0----|
G|-----0-------0---|-----2--------2---|-----0-------0---|-----2-------0------|
D|---2-------2-----|---3--------3-----|---2-------0-----|---2-------0--------|
A|-----------------|-3----------------|-3-------2-------|-0------------------|
E|-0---------------|------------------|-----------------|---------3----------| 
  If you knew how much      this moment means     to      me         and how


      (F)               (C)                  (G)             (G)
e|---------1-------|---------0-------|---------3-------|---------3-----------|
B|-------1-------1-|-------1-------0-|-------0-------3-|-------0-------3-----|
G|-----2-------2---|-----0-------0---|-----0-------0---|-----0-------0-------|
D|---3-------3-----|---2-------2-----|---0-------0-----|---0-------0---------|
A|-3---------------|-3---------------|-----------------|---------------------|
E|-----------------|-----------------|-3---------------|-3-------------------|
long           I've waited     for your touch                       and if you



        (Em)             (F)                (C)             (Am)       (G) 
e|---------0-------|---------1--------|-----------------|--------------------|
B|-------0-------0-|-------1--------1-|-------1-------0-|-------1-------0----|
G|-----0-------0---|-----2--------2---|-----0-------0---|-----2-------0------|
D|---2-------2-----|---3--------3-----|---2-------0-----|---2-------0--------|
A|-----------------|-3----------------|-3-------2-------|-0------------------|
E|-0---------------|------------------|-----------------|---------3----------| 
  knew     how      happy  you are      ma-king           me          i never    

        (F)               (C)                (G)                    CHORUS
e|---------1-------|---------0-------|---------3--------1-|-------------|
B|-------1-------1-|-------1-------0-|-------0-------0----|-------------|
G|-----2-------2---|-----0-------0---|-----0-------0------|---------0---|
D|---3-------3-----|---2-------2-----|---0-------0--------|-------0---0-|
A|-3---------------|-3---------------|--------------------|-------------|
E|-----------------|-----------------|-3------------------|-------------|
thought       i'd love anyone    so much                         feels like


       (C)               (C)               (G)             (G)
e|---------0-----|---------0--------|---------3------|---------3-------|
B|-------1-------|-------1--------1-|-------3------0-|-------3-------0-|
G|-----0-----0---|-----0-------0----|-----0------0---|-----0-------0---|
D|---3-----3---3-|---3-------2------|---0------0-----|---0-------0-----|
A|-3-------------|-3----------------|----------------|-----------------|
E|---------------|------------------|-3--------------|-3---------------| 
home      to me         feels like    home      to me            feels like im




     (F)       (C)      (Am)                 (G)                (G)     
e|-------1-------0-|------------------|---------3-------|---------3--------|
B|-----1-------1---|-------1-------1--|-------0-------3-|-------0-------3--|
G|---2-------0-----|-----2-------2--2-|-----0-------0---|-----0-------0----|
D|-3-------2-------|---2-------0------|---0-------0-----|---0-------0------|
A|-----------------|-0----------------|-----------------|------------------|
E|-----------------|------------------|-3---------------|-3----------------|
   All      the way back      where i come from               it feels like 

 
        (C)               (C)               (G)             (G)
e|---------0-----|---------0--------|---------3------|---------3-------|
B|-------1-------|-------1--------1-|-------3------0-|-------3-------0-|
G|-----0-----0---|-----0-------0----|-----0------0---|-----0-------0---|
D|---3-----3---3-|---3-------2------|---0------0-----|---0-------0-----|
A|-3-------------|-3----------------|----------------|-----------------|
E|---------------|------------------|-3--------------|-3---------------| 
home      to me         feels like    home      to me            feels like im



     (F)       (C)             (G)            (C)             (C)           
e|-------1-------0-|------------------|---------0-------|---------0--------|
B|-----1-------1---|-----1----------0-|-------1-------1-|-------1-------0--|
G|---2-------0-----|---2---2-----0----|-----0-------0---|-----0-------0----|
D|-3-------2-------|-0---------0------|---2-------2-----|---2-------2------|
A|-----------------|------------------|-3---------------|-3----------------|
E|-----------------|---------3--------|-----------------|------------------|
   All      the way back     where i     belong               feels like im


     (F)       (C)             (G)            (C)         (C-strum)         
e|-------1-------0-|------------------|---------0-------|---------0----|
B|-----1-------1---|-----1----------0-|-------1-------1-|-------1------|
G|---2-------0-----|---2---2-----0----|-----0-------0---|-----0--------|
D|-3-------2-------|-0---------0------|---2-------2-----|---2----------|
A|-----------------|------------------|-3---------------|-3------------|
E|-----------------|---------3--------|-----------------|--------------|
   All      the way back     where i     belong               



END




************************************
comments
print report bad tab
I want to post or [tab]
guest
You may want to rate the tab now too:
select rating
Please do not post tabs as comments. Select "correction" instead!