Oops, an error
Loading. Please wait.

A Girl Like You Tab

version 2
version 2

Whole song

  • All the parts, complete, all the chords, correct c... Show more

Interactive

247 views 1 this week
no commentswrite comment
1 2 3 4 5
3 more votes to show rating
add to favorites
launch autoscroll
font size
0
reset
how to read this tab
guitar tuner
×
Best way to learn
"A Girl Like You"
Autoscroll
slow
fast
+/-
esc
set tempo
stop
Author
Difficulty
newg [tm] 47,430
  follow
intermediate
About this tab version
All the parts, complete, all the chords, correct chords (capo8) (from live version) , with tempo and diagram and Vibraphone parts. Was this info helpful? Yes No
----------------------------------------------------------------------------------------------------
                           Edwyn Collins - A Girl Like You
----------------------------------------------------------------------------------------------------

Album : Gorgeous George (1994)
Tempo : 126
E-mail: gwendal.mollo@orange.fr
Tabbed by: newg    (http://profile.ultimate-guitar.com/newg/)

Transcript with the help of live version.
See my guitar pro/ Powertab/ chords & bass tab's for more 

Also check my Black keys version tab's

Guitar I capo 5, guitar II without capo.

Guitar I (capo 5):
[Intro] [Verse] [Riff] [Solo]
    Em                           D        Em/D
e|--0-----x--0--0--0--x-------|--2--2--x--3-----3--3--x----|
B|--0-----x--0--0--0--x-------|--3--3--x--5-----5--5--x----|
G|--0-----x--0--0--0--x--x----|--2--2--x--4-----4--4--x----|
D|--2-----x--2--2--2--x--x----|--0--0--x--------------x----|
A|--2--------2--2--2-----x----|----------------------------|
E|--0--------0--0--0-----x----|----------------------------|

  Em                           C        Em
e|--0-----x--0--0--0--x-------|--0--0--x--0-----0--0--x----|
B|--0-----x--0--0--0--x-------|--1--1--x--0-----0--0--x----|
G|--0-----x--0--0--0--x--x----|--0--0--x--0-----0--0--x----|
D|--2-----x--2--2--2--x--x----|--2--2--x--2-----2--2--x----|
A|--2--------2--2--2-----x----|--3--3--x--2-----2--2--x----|
E|--0--------0--0--0-----x----|-----------0-----0--0--x----| 

Verse : x4
Intro & Riff : x2


[Bridge 1]
    Em                           C        D
e|--0-----x--0--0--0--x-------|--0--0--x--2-----2--2--x----|
B|--0-----x--0--0--0--x-------|--1--1--x--3-----3--3--x----|
G|--0-----x--0--0--0--x--x----|--0--0--x--2-----2--2--x----|
D|--2-----x--2--2--2--x--x----|--2--2--x--0-----0--0--x----|
A|--2--------2--2--2-----x----|--3--3--x-------------------|
E|--0--------0--0--0-----x----|----------------------------| x6
 
    Em                           D        Em/D
e|--0-----x--0--0--0--x-------|--2--2--x--3-----3--3--x----|
B|--0-----x--0--0--0--x-------|--3--3--x--5-----5--5--x----|
G|--0-----x--0--0--0--x--x----|--2--2--x--4-----4--4--x----|
D|--2-----x--2--2--2--x--x----|--0--0--x--------------x----|
A|--2--------2--2--2-----x----|----------------------------|
E|--0--------0--0--0-----x----|----------------------------|

  Em                           C        Em
e|--0-----x--0--0--0--x-------|--0--0--x--0-----0--0--x----|
B|--0-----x--0--0--0--x-------|--1--1--x--0-----0--0--x----|
G|--0-----x--0--0--0--x--x----|--0--0--x--0-----0--0--x----|
D|--2-----x--2--2--2--x--x----|--2--2--x--2-----2--2--x----|
A|--2--------2--2--2-----x----|--3--3--x--2-----2--2--x----|
E|--0--------0--0--0-----x----|-----------0-----0--0--x----|

[Bridge 2]
    Em                           C        D
e|--0-----x--0--0--0--x-------|--0--0--x--2-----2--2--x----|
B|--0-----x--0--0--0--x-------|--1--1--x--3-----3--3--x----|
G|--0-----x--0--0--0--x--x----|--0--0--x--2-----2--2--x----|
D|--2-----x--2--2--2--x--x----|--2--2--x--0-----0--0--x----|
A|--2--------2--2--2-----x----|--3--3--x-------------------|
E|--0--------0--0--0-----x----|----------------------------| x6

    Em                           D        Em/D
e|--0-----x--0--0--0--x-------|--2--2--x--3-----3--3--x----|
B|--0-----x--0--0--0--x-------|--3--3--x--5-----5--5--x----|
G|--0-----x--0--0--0--x--x----|--2--2--x--4-----4--4--x----|
D|--2-----x--2--2--2--x--x----|--0--0--x--------------x----|
A|--2--------2--2--2-----x----|----------------------------|
E|--0--------0--0--0-----x----|----------------------------|




Guitar II (no capo): 

Verse's Riff
e|----------------|----------------------------|
B|----------------|----------------------------|
G|----------------|----------------------------|
D|--10.8.-6.-5.---|--3.----8.-5L-------5-------|
A|----------------|----------------------------|
E|----------------|----------------------------|

Riff :
                      Em                        D            Em/D
e|------------------|-------------------------|---------------------------|
B|------------------|-------------------------|------8s-11--8-------------|
G|------------8--10-|--10b---8----------------|--8------------------8--10-|
D|---------10-------|-----------10-------10---|------------------10-------|
A|------------------|-------------------------|---------------------------|
E|------------------|-------------------------|---------------------------|
                      Em                        C          Em
                    |-------------------------|---------------------------|
                    |--8----------------------|---------------------------|
                    |--------8----------------|--7-----------------8--10--|
                    |-----------10-------10---|--------8--10----10--------|
                    |-------------------------|---------------------------|
                    |-------------------------|---------------------------|
                      Em                        D            Em/D
                    |-------------------------|---------------------------|
                    |-------------------------|------8s-11--8-------------|
                    |--10b---8----------------|--8------------------8--10-|
                    |-----------10-------10---|------------------10-------|
                    |-------------------------|---------------------------|
                    |-------------------------|---------------------------|
                      Em                        C           Em
                    |-------------------------|---------------------------|
                    |--10b---8----------------|---------------------------|
                    |-------------------------|--7------------------------|
                    |------------10-------10--|--------8--10--------------|
                    |-------------------------|---------------------------|
                    |-------------------------|---------------------------|

Little riff  (2'50) :
e|-------|
B|-------|
G|--11b--|
D|-------|
A|-------|
E|-------|




Solo 1 :

e|----------------------------|----------------------------|
B|----------------------------|--11-13---------------------|
G|-----8----------------------|----------------------------|
D|--10------------------------|----------------------------|
A|----------------------------|----------------------------|
E|----------------------------|----------------------------|


e|----------------------------|-------|----------------------------|
B|--15-16---------------------|--18---|----------------------------|
G|----------------------------|-------|-----8L----------8--10-8----|
D|----------------------------|-------|--10------------------------|
A|----------------------------|-------|----------------------------|
E|----------------------------|-------|----------------------------|


e|----------------------------------------------------|
B|--8-------------------------------------------------|
G|--------------------------------------10-8----------|
D|--------------------------------------------10------|
A|----------------------------------------------------|
E|----------------------------------------------------|


e|----------------------------------------------------|
B|--6-------------------------------------------------|
G|--8-----------8-------------------------------------|
D|--------------------8-----5-----8-------------------|
A|----------------------------------------------------|
E|----------------------------------------------------|


e|----------------------------|
B|--6-------------------------|
G|--7-----5--8L----------8----|
D|-----8----------------------|
A|----------------------------|
E|----------------------------|

Solo 2 :

e|----------------------------|-------|----------------------------|-------|
B|-----------------------8L---|--8----|----------------------------|-------|
G|-----8--8--------8--10------|-------|-----8--8--------8--10------|-------|
D|--10----------10------------|-------|--10----------10-------8L---|--8----|
A|----------------------------|-------|----------------------------|-------|
D|----------------------------|-------|----------------------------|-------|



e|----------------------------|----------------|----------------------------|
B|--------------------8--11L--|--11------------|-----------------------8L---|
G|-----8--8--------8----------|----------------|-----8--8-----8--10-8-------|
D|--10----------10------------|----------------|--10-------10---------------|
A|----------------------------|----------------|----------------------------|
D|----------------------------|----------------|----------------------------|



e|----------------------------|----------------------------|
B|--8-----------8-------------|--8-----------8-------------|
G|--------10-8--------10-8----|--------10-8--------10-8----|
D|----------------------------|----------------------------|
A|----------------------------|----------------------------|
E|----------------------------|----------------------------|


e|----------------------------|----------------------------|
B|--8-----------8-------------|----------------------------|
G|--------10-8--------10-8----|--8-------------------------|
D|----------------------------|-----------10L---------10---|
A|----------------------------|----------------------------|
E|----------------------------|----------------------------|


e|----------------------------|----------------------------|
B|----------------------------|--11------------------------|
G|--10------------------------|----------------------------|
D|-----------10L---------10---|-----------10L---------10---|
A|----------------------------|----------------------------|
E|----------------------------|----------------------------|


e|----------------------------|
B|--13------------------------|
G|----------------------------|
D|-----------10L10------------|
A|----------------------------|
E|----------------------------|


Vibraphone parts :

Intro :
e|----------------------------|----------------------------------|
B|--------------------8-------|--11------------------------------|
G|-----------8--10------------|-----10/11---------10----8--------|
D|--------10------------------|----------------------------10----|
A|----------------------------|----------------------------------|
E|----------------------------|----------------------------------|


e|----------------------------|----------------------------------|
B|--------------------8-------|--11------------------------------|
G|-----------8--10------------|-----10/11-----10b----8-----------|
D|--------10------------------|----------------------------------|
A|----------------------------|----------------------------------|
E|----------------------------|----------------------------------|

e|----------------------------|----------------------------------|
B|--------------------8-------|--11------------------------------|
G|-----------8--10------------|-----10/11---------10----8--------|
D|--------10------------------|----------------------------10----|
A|----------------------------|----------------------------------|
E|----------------------------|----------------------------------|

e|----------------------------|----------------------------------|
B|-------------------7/8------|----------------------------------|
G|-----------8--10------------|-10b------------------------------|
D|--------10------------------|----10---10-----------------------|
A|----------------------------|----------------------------------|
E|----------------------------|----------------------------------|

Fill (0'43) :
e|-------------------|-------------------|
B|-----------8---10--|-------------------|
G|-----10-10---------|--13-10----10------|
D|-------------------|-------------------|
A|-------------------|-------------------|

Outro :

e|--------3-----1-------------|------------1----|
B|-----------------4--1-------|-----4-----------|
G|----------------------------|-----------------|
D|----------------------------|-----------------|
A|----------------------------|-----------------|
E|----------------------------|-----------------|

e|--------3-----1-------------|-----------------|
B|-----------------4--1-------|-----4------1----|
G|----------------------------|-----------------|
D|----------------------------|-----------------|
A|----------------------------|-----------------|
E|----------------------------|-----------------|  repeat
Suggest correction
Give kudos to tab author, rate the tab!
1 2 3 4 5
comments
print report bad tab
guest
You may want to rate the tab now too:
select rating
Wanna post a correction for this tab? Suggest correction