Oops, an error
Loading. Please wait.

A Girl Like You Bass Tab

version 3
version 3

Whole song

Interactive

40 views 1 this week
no commentswrite comment
1 2 3 4 5
3 more votes to show rating
add to favorites
launch autoscroll
font size
0
reset
guitar tuner
Autoscroll
slow
fast
+/-
esc
set tempo
stop
Help us to improve Ultimate-Guitar.com Take our survey!
×
Author
Difficulty
newg [tm] 45,857
novice
About this tab version
Correct notes.from live version with tempo. Was this info helpful? Yes No
----------------------------------------------------------------------------------------------------
                           Edwyn Collins - A Girl Like You
----------------------------------------------------------------------------------------------------

Album : Gorgeous George (1994)
Tempo : 126
E-mail: gwendal.mollo@orange.fr
Tabbed by: newg    (http://profile.ultimate-guitar.com/newg/)

See my guitar pro/ Powertab/ Guitar & bass tab's for more 

Only this riff all the song :

G|----------------------------|----------------------------|
D|----------------------------|----------------------------|
A|--3--------3--3--------3----|--3--------3--3--------1----|
E|----------------------------|-----------------1--3-------|


fill at 3:03 (thanks to omega)
G|----------------------------|----------------------------|
D|----------------------------|--10--10--8--8--6--6--5-----|
A|--3--------3--3--------3----|----------------------------|
E|----------------------------|----------------------------|
Suggest correction
Give kudos to tab author, rate the tab!
1 2 3 4 5
comments
print report bad tab
guest
You may want to rate the tab now too:
select rating
Wanna post a correction for this tab? Suggest correction