Oops, an error
Loading. Please wait.

Trein chords

145 views 3 this week
no commentswrite comment
1 2 3 4 5
2 more votes to show rating
add to favorites
×
Save as Personal and add changes to this tab that will be seen only by you. Learn more ›
×
You can save this tab as Personal to edit and correct it or add notes. All changes will be seen only by you. Learn more »
launch autoscroll
font size
0
reset
transpose
0
reset
simplify chords
display chords
guitar tuner
edit
Autoscroll
slow
fast
+/-
esc
set tempo
stop
Author
Difficulty
Strumming Is this strumming pattern correct? Yes No
130 bpm
1
 
&
 
2
 
&
 
3
 
&
 
4
 
&
 
Listen
In deze video kan je goed zien hoe Eefje het loopje speelt:
https://www.youtube.com/watch?v=wFfU7yxgsKo

[Intro Gitaar 1]
E|----------------|----------------|
B|----------------|----------------|
G|----3-------3---|----3-------3---|
D|5-------5-------|5-------5-------|
A|----------------|----------------|
E|----------------|----------------|

[Gitaar 2]
  G      F     C      Bb
E|----------------|----------------|
B|3-----3-----3---|--3-----3-------|
G|--0-----0-----0-|----0-----0-----|
D|----0-----0-----|0-----0-----0---|
A|------------3---|--1-------------|
E|3-----1---------|----------------|

[Vers 1]
           G  F C Bb
Er was een trein, waar ik in zat 
G  F C Bb
  Waarin ik rust vond 
G    F                  C Bb
   Rust van de mensen, rust in mezelf 
    G  F C Bb
en rust door het land waar we langs 

[Vers 2]
              G  F C Bb
Er was een trein, waar ik in zat 
G  F C Bb
  Waarin ik gek werd 
G     F             C Bb
  Gek van de mensen, gek van mezelf
   G  F                      C Bb 
en gek van de steden waar we reden 
Als ik mijn..

  C                                  Eb
E|3-----3-----3---|--3-----3--------|3-----3-----3---|--3-----3--------|     
B|--3-----3-----3-|----3-----3------|--3-----3-----3-|----3-----3------|     
G|----3-----3-----|3-----3-----3----|----3-----3-----|3-----3-----3----|     
D|----------------|-----------------|1-----------3---|-----------------|     
A|3---------------|-----------------|----------------|-----------------|     
E|----------------|-----------------|----------------|-----------------|     
hoofd op de ramen rustte 

  G      F     C      Bb
E|3-----3-----3---|--3-----3-------|
B|----------------|----------------|
G|--0-----0-----0-|----0-----0-----|
D|----0-----0-----|0-----0-----0---|
A|------------3---|--1-------------|
E|3-----1---------|----------------|

         G       F       C       Bb
En omdat niemand me verliet was ik 
nooit echt alleen te vinden 
          G       F           
ik had een huis vol vreemden en 
    C           Bb
een hoofd vol vrienden 
    Cm
een brievenbus vol brieven 
op iedereen verliefd en 
           Bm11
ik ga naar bed...
          Bm7                   F#m
of doe alsof net, net alsof ik slaap 
   A                    Bm11
alsof net, net alsof ik wakker ben 
   Bm7          F#m
alsof net, net alsof 
          Am
Ik doe alsof net, net alsof 

[Vers 3]
  G      F     C      Bb
E|----------------|----------------|
B|3-----3-----3---|--3-----3-------|
G|--0-----0-----0-|----0-----0-----|
D|----0-----0-----|0-----0-----0---|
A|------------3---|--1-------------|
E|3-----1---------|----------------|

           G   F  C Bb
Er was een trein, waarin ik wegreed 
G     F           
waarin ik wegreed 
  C  Bb                   G          F                C   Bb
   En toen ie halt hield, werden we wakker in ons eentje 
                   G           F
Verwilderd en vervreemd, maar alleen 
      C             Bb
maar alleen maar alleen 

[post-vers]
  C                                  Eb
E|3-----3-----3---|--3-----3--------|3-----3-----3---|--3-----3--------|     
B|--3-----3-----3-|----3-----3------|--3-----3-----3-|----3-----3------|     
G|----3-----3-----|3-----3-----3----|----3-----3-----|3-----3-----3----|     
D|----------------|-----------------|1-----------3---|-----------------|     
A|3---------------|-----------------|----------------|-----------------|     
E|----------------|-----------------|----------------|-----------------|     

  G      F     C      Bb
E|3-----3-----3---|--3-----3-------|
B|----------------|----------------|
G|--0-----0-----0-|----0-----0-----|
D|----0-----0-----|0-----0-----0---|
A|------------3---|--1-------------|
E|3-----1---------|----------------|

         G       F       C       Bb
En omdat niemand me verliet was ik 
nooit echt alleen te vinden 
          G       F           
ik had een huis vol vreemden en 
    C           Bb
een hoofd vol vrienden
    Cm
een brievenbus vol brieven 
op iedereen verliefd en 
           Bm11
ik ga naar bed... 

       Bm7                     F#m
of doe alsof net, net alsof ik slaap 
   A                    Bm11
alsof net, net alsof ik wakker ben 
   Bm7            F#m
alsof net, net alsof 
           Am                   Bm11
Ik doe alsof net, net alsof ik wakker ben

Bm7                        F#m
alsof net, net alsof ik slaap 
A                        Bm11
alsof net, net alsof ik wakker ben 
Bm7            F#m
alsof net, net alsof
                 Am
ik doe, ik doe alsof net, net, net, net, net, net alsof 

  G      F     C      Bb
E|----------------|----------------|
B|3-----3-----3---|--3-----3-------|
G|--0-----0-----0-|----0-----0-----|
D|----0-----0-----|0-----0-----0---|
A|------------3---|--1-------------|
E|3-----1---------|----------------|

G  F  C B
            Hmmm 
G  F  C Bb
Omdat niemand me verlaat 
G  F  C Bb
Omdat niemand me begrijpt 
G  F  C Bb
niemand laat me gaan 
G  F  C Bb
maar ik ben continu op reis 
G  F  C Bb
omdat je me niet wakker heb geschud 
G  F  C Bb
omdat ik iedereen de schuld geef 
C    D
omdat ik iedereen gelijk geef 
   G  F  C Bb
omdat ik praat en praat en praat en praat 
  G  F  C Bb
en luister, luister, luister 
G  F  C Bb
ik stik, ik stik, ik stik in dit verhaal

            
            
Suggest correction
Creating personal tab
Creating personal tab
You can edit any tab online and save it as your Personal.

You can edit, replace or remove any tab part or add personal notes – all changes will be seen only by you.

Personal tabs can be accessed anytime from any device, even offline.
Learn more »
Give kudos to tab author, rate the tab!
1 2 3 4 5
comments
print report bad tab
guest
You may want to rate the tab now too:
select rating
Wanna post a correction for this tab? Suggest correction