Oops, an error
Loading. Please wait.

Crime Bass Tab

286 views 1 this week
no commentswrite comment
1 2 3 4 5
please rate
add to favorites
launch autoscroll
font size
0
reset
guitar tuner
Autoscroll
slow
fast
+/-
esc
set tempo
stop
Help us to improve Ultimate-Guitar.com Take our survey!
×
Difficulty
novice
-----------------------------------------------------------------------------
                             CRIME by Eek-a-Mouse
-----------------------------------------------------------------------------
Album: Assassinator (Mouse-A-Mania Compilation)
Tabbed by: Brad
E-mail: bradmorelli@gmail.com

Tuning: Standard

 INTRO
G|-------------------------------------------------------------------------|
D|--9--9--9-7---9----------------------------------------------------------|
A|------------9------10-10-10-10-9-9---------------------------------------|
E|-----------------------------------7-------------------------------------|

(Listen to the song to get the reggae groove)

(The verse(s) has two alternating riffs, listen and pick them out)

 VERSE V1 riff
G|-------------------------------------------------------------------------|
D|---------------------------------------------------9-7-------------------|
A|----------9--------10-10-10-10-9-----------------------9--7-9------------|
E|--7--7-10---7-7--7---------------10-9-7----7-----------------------------|
(sometimes this lick is thrown in at the end -----> [^^^^^^^^^^^])

 VERSE V2 riff
G|-------------------------------------------------------------------------|
D|----------------------------------------------------9-7------------------|
A|----------9-----------10-10-10-10-9---------------------9--7-9-----------|
E|--7--7-10---10-10--10---------------10-9-7----7--------------------------|
(sometimes this lick is thrown in at the end ----->  [^^^^^^^^^^^])

(There are subtle alterations of rhythm, but they are variations of the transcribed 
notes here, so listen close.)

OUTRO riff
(3:37-3:54)
G|-------------------------------------------------------------------------|
D|-------------------------------------------------------------------------|
A|-----------9----------------10--10-9-------------------------------------|
E|---7--7-10---10---10-7-10------------10-9--7-----------------------------|

Done.

| /  slide up
| \  slide down
| h  hammer-on
| p  pull-off
| ~  vibrato
| +  harmonic
| x  Mute note
============================================================================
Suggest correction
What's this?
You can suggest a correction to this tab. Community and Mods will review your correction and vote to approve or reject it.
comments
We did not receive enough feedback on this tab! Please rate:
print report bad tab
1 2 3 4 5
guest
You may want to rate the tab now too:
select rating
Please do not post tabs as comments. Select "correction" instead!