Oops, an error
Loading. Please wait.

Electro-Shock Blues album chords

version 1
version 1

Album

Interactive

by Eels
673 views 6 this week
no commentswrite comment
1 2 3 4 5
1 last vote to show rating
add to favorites
×
Save as Personal and add changes to this tab that will be seen only by you. Learn more ›
×
You can save this tab as Personal to edit and correct it or add notes. All changes will be seen only by you. Learn more »
launch autoscroll
font size
0
reset
transpose
0
reset
simplify chords
display chords
guitar tuner
edit
Autoscroll
slow
fast
+/-
esc
set tempo
stop
Author
Difficulty
newg [tm] 49,599
intermediate
Strumming
There is no strumming pattern for this song yet. and get +5 IQ
~~~~~~~~~~~~~~~~~~~~~~~~~~~~~~~~~~~~~~~~~~~~~~~~~~~~~~~~~~~~~~~~~~~~~~~~~~~~~~~~~~~~~~~~~~~
|                                                                                         |
|    *****************                                                                    |
|   *      Eels       *                                                                   |
|    *****************                                                                    |         
|                                                                                         |
|                                                                                         |
|                    Electro-Shock Blues     (1998)                                       |
|                 ------------------------                                                |
|                                                                                         |
|                                                                                         |
|                                                                                         |
| E-mail: gwendal.mollo@orange.fr                                                         |
| Tabbed by: newg    (http://profile.ultimate-guitar.com/newg/)                           |
|                                                                                         |
|                                                                                         |
~~~~~~~~~~~~~~~~~~~~~~~~~~~~~~~~~~~~~~~~~~~~~~~~~~~~~~~~~~~~~~~~~~~~~~~~~~~~~~~~~~~~~~~~~~~

Tracklist :

    Elizabeth on the Bathroom Floor 
    Going to Your Funeral, Pt. 1 
    Cancer for the Cure 
    My Descent Into Madness 
    3 Speed 
    Hospital Food 
    Electro-Shock Blues
    Efils' God 
    Going to Your Funeral, Pt. 2
    Last Stop: This Town 
    Baby Genius (not available yet)
    Climbing to the Moon 
    Ant Farm 
    Dead of Winter 
    The Medication Is Wearing Off 
    P.S. You Rock My World







-------------------------------------------------------------------------------
                              Eels - Elizabeth on the Bathroom Floor
-------------------------------------------------------------------------------

Album : Electro-Shock Blues (1998)
Tempo : 70

You can find the guitar pro/powertab version here :
https://tabs.ultimate-guitar.com/e/eels/elizabeth_on_the_bathroom_floor_guitar_pro.htm


Capo 7


         Bm7                     Bb
     E|---------0~---------0~------------0~------------1-----------1~--------|
     B|----3~------3~-3~------3~------3~----3~------3~----3~----3~-----------|
     G|-------2----------2-------1-1~----------1/3~----------3~--------3~----|
     D|----4~---------4~-----------4~------------3~--------------------3~----|
     A|----------------------------------------------------------------------|
     E|----------------------------------------------------------------------|

         Bm7                     Bb
     E|---------0~---------0~------------0~------------1-----------1~--------|
     B|----3~------3~-3~------3~------3~----3~------3~----3~----3~-----------|
     G|-------2----------2-------1-1~----------1/3~----------3~--------3~----|
     D|----4~---------4~-----------4~------------3~--------------------3~----|
     A|----------------------------------------------------------------------|
     E|----------------------------------------------------------------------|

           (strum)    Bm7   Bb    X2

     Bm7                        Bb
        laying on the bathroom floor
     Bm7                            Bb
        kitty licks my cheek once more
        C               B
     and I...  I could try...
          Bm7                               Bb
     but waking up is harder when you wanna die


   
     Bm7                       Bb
        Walter's on the telephone
     Bm7                     Bb
        Tell him I'm not at home
            C                B
     'cause I...  think that I...
          Bm7                               Bb
     am going to a place where I am always high...


     Bm7                 Bb 
        My name is Elizabeth
     Bm7                    Bb  
        My life is shit and piss

      Out
      E|---------0~---------0~------------0~------------1-----------1~--------|
      B|----3~------3~-3~------3~------3~----3~------3~----3~----3~-----------|
      G|-------2----------2-------1-1~----------1/3~----------3~--------3~----|
      D|----4~---------4~-----------4~------------3~--------------------3~----|
      A|----------------------------------------------------------------------|
      E|----------------------------------------------------------------------|

      E|---------0~---------0~------------0~---------0-0-0---------------------|
      B|----3~------3~-3~------3~------3~----3~------0-0-0---------------------|
      G|-------2----------2-------1-1~----------1/3~-3-3-3~-  I-----I      ----|
      D|----4~---------4~-----------4~------------3~-3-3-3~-  I---          ---|
      A|---------------------------------------------1-1-1~-  I   ade out   ---|
      E|-----------------------------------------------------------------------|





                  ~~~~~~~~~~~~~~~~~~~~~~~~~~~~~~~~~~~~





-------------------------------------------------------------------------------
                              Eels - Going To Your Funeral - Part 1
-------------------------------------------------------------------------------

Album : Electro-Shock Blues (1998)
Tempo : 100
E-mail: thibiat@yahoo.fr

You can find the guitar pro/powertab version here :
https://tabs.ultimate-guitar.com/e/eels/going_to_your_funeral_part_1_power_tab.htm

Chords:
C    x35553
B    x24442
Bb   x13331
Am   x02210
G    320033
F    133211


2nd guitar
e>-------------------------------------------------|
B>-------------------------------------------------|
G>------------------------------2------------------|
D>-------------------------------------------------|
A>-0----0--3---0----0--3--0--3-----3---------------|
E>-------------------------------------------------|


1st guitar
e>--0-----0---0------------------------------------------------------|
B>--------------------4-----4---4-----3------3---3-------1-----1---1-|
G>-----2-----------2------2---------2------2----------2------2-------|
D>-------------------------------------------------------------------|
A>-------------------------------------------------------------------|
E>-------------------------------------------------------------------|


1st VERSE

C                         B
going to your funeral and feeling i could scream
Bb               Am
everything goes away
C                                    B
driving down the highway through the perfect sunny dream
  Bb                      Am
a perfect day for perfect pain

Chorus :
C                G               Bb               F
 look at all the people with the flowers in their hands,
     C              G                 Bb              F
they put the flower on the box that's holding all the sand that was...
C         G
 that was once...
Bb        F       C   G   Bb
 that was once youuuuuuuuuu

C  B  Bb  Am (with the 2nd guitar)


Honolulu hurricane i knew that you were not insane,
living in the insane world
(enter the 1st guitar)
smiling like it's no big deal scabby wounds that never heal
the woman was only a girl

Chorus :
look at all the people with their heads down in their hands
when everything I'm feeling makes it hard to understand that, uh
what i need to miss it's...
what i need to miss is you

C  B  Bb  Am (with the 2nd guitar)

3rd VERSE (distorted guitar playing like the vocal + thunder sound)
Going to your funeral and feeling like a fool
no ones gonna take the blame,
thinking bout the days of hanging out behind the school
everything goes away.





                  ~~~~~~~~~~~~~~~~~~~~~~~~~~~~~~~~~~~~



-------------------------------------------------------------------------------
                              Eels - Cancer for the Cure
-------------------------------------------------------------------------------

Album : Electro-Shock Blues (1998)
Tempo : 144
E-mail: T_I_W_C@Hotmail.com
Tabbed by: Tom C / http://www.emjoyeels.co.uk


Chords
Csus4 x 3 5 5 6 3
C x 3 5 5 5 3

Intro/Main Riff (Bass): Played right through

1 2 3 4 1 2 3 4 (Rhythm)
G|--------------------------------------------
D|--------------------------------------------
A|------1-3-----1------------------------------
E|--3-----------------------------------------

Verse (With Just bass riff and Drums)

the kids are diggin’ up a brand new hole
where they put their deadbeat mom
grandpa’s happy watching video porn
with the closed caption on
and father knows best*
about suicide and smack*

* Play this riff
G|--------------------------------------------
D|--------------------------------------------
A|-1------1/8------8/7------------------------
E|--------------------------------------------

well, hee hee hee

Chorus:
Csus4 C
cancer for the cure
Csus4 C
cancer for the cure
Csus4 C
buckle up and endure now baby
Csus4 C
cancer for the cure


‘ol blue eyes is back again
but he was never here in the first place
a heart attack may be something to fear
but take a look out back
‘cause courtney needs love
and so do I

well, hee hee hee
cancer for the cure
cancer for the cure
buckle upand endure now sweet thing
the cancer for the cure




                  ~~~~~~~~~~~~~~~~~~~~~~~~~~~~~~~~~~~~



-------------------------------------------------------------------------------
                              Eels - My Descent Into Madness
-------------------------------------------------------------------------------

Album : Electro-Shock Blues (1998)
Tempo : 172
E-mail: thibiat@yahoo.fr

CHORDS :
G       320003 in the chorus and 320033 in the rest of the song
C       x32010
Bb(=A#) x13331
F       133211
Ab(=G#) 466544
Gm      355333
C#(=Db) x46664


[INTRO]
G            C
G            C
 la la la la la la la la

1st VERSE
G                             C
 Springfield's looking pretty  dusty today
G                            C
 I see their dreams coming undone
G                               C
 The view from inside ward nine  affords this much
G                          C
 A town teeming with the unloved
Bb         F          Ab              Gm       C#
 Close the window and lock it so it's good and tight

CHORUS
G            C
 la la la la la la la la
G            C
 la la la la la

2nd VERSE
Turning 18 and trying not to look too lost
have a not so nice day
the jacket makes me straight so i can just sit back and bake
you know i think im gonna stay
Bb       F             Ab            Gm     C#
 talking very loud but no one hears a word i say

CHORUS
la la la la la la la la
la la la la la
(bis)


BRIDGE
G                              C                                  G
 [come visit me tonight at 8 o' clock and then you'll see how i,
                 C    (violin riff on G and C)
im not the crazy one]
G                          C      G  C (x4)
 [voices tell me i am the] shit
Bb         F      Ab       Gm        C#
 20 days go by and everyday looks the same, same, same, same ...

CHORUS
la la la la la la la la
la la la la la
(bis)


OUTRO
G     C         G
         Im the shit

G and C to the end.






                  ~~~~~~~~~~~~~~~~~~~~~~~~~~~~~~~~~~~~





-------------------------------------------------------------------------------
                              Eels - 3 Speed
-------------------------------------------------------------------------------

Album : Electro-Shock Blues (1998)
Tempo : 135
E-mail: kartpete@hotmail.com
Tabbed by: pietr  

You can find my guitar pro/powertab version here :
https://tabs.ultimate-guitar.com/e/eels/3_speed_guitar_pro.htm

Capo 7


C*      -  x32013 (during the solo)
Gsus/B  -  x2001x
Gsus/B* -  x20013 (during the solo)
F       -  xx321x
G       -  xx000x (sometimes sounds like xx0003)
D5      -  xx023x (sometimes sounds like Dm xx0231 or D xx0232)


C Gsus/B x4

C                     Gsus/B
  got a 3 speed and banana seat
C                     Gsus/B
  sitting back on the sissy bar
C                 Gsus/B
  went to sev and got a drink
C                       Gsus/B
  wish i was driving in daddy's car

      F                G
and i looked up at the sky last night
      Am              D5
and i thought i saw a bomb
    F                   G                   C     Gsus/B
and why won't you just tell me what's going on?

C                Gsus/B
  riding down on springhill road
C                    Gsus/B
  meeting Alfred out in the woods
C                  Gsus/B
  dogs bark and mosquitos bite
C                          Gsus/B
  scratching the itch that makes it feel good

      F               G
and i looked into the mirror last night
      Am               D
all i saw was a pretty blonde
    F                  G                     C    Gsus/B
and why won't you just tell me what's going on?

Am
  life is funny
    D5
but not ha ha funny
F              C   Gsus/B
  peculiar i guess
Am                       D5
  you think i got it all going my way
     F               G
then why am i such a fucking mess?

During solo:

C*    Gsus/B*  (repeat 4 times)


C                   Gsus/B
  want a pony and a birthday cake
C                     Gsus/B
  want a party with a scary clown
C                Gsus/B
  kneel down and bow to the princess
C                    Gsus/B
  kneel down for the queen of the town

      F                G
and i looked up at the sky last night
      Am              D5
and i thought i saw a bomb
    F                   G                    C     Gsus/B     C
and why won't you just tell me what's going on?
 Gsus/B              C
tell me what's going on
 Gsus/B              C
 Gsus/B              C (repeat to fade)






                  ~~~~~~~~~~~~~~~~~~~~~~~~~~~~~~~~~~~~



-------------------------------------------------------------------------------
                              Eels - Hospital Food
-------------------------------------------------------------------------------

Album : Electro-Shock Blues (1998)
Tempo : 144

G|-------------------------|------------------------------|
D|-------8-----------------|------------------------------|
A|--/12------\\6--3--3-----|--6/8-8/10--b10-b10--3--6--3--|
E|-------------------------|------------------------------|

Comin' through the alley tryin' to walk without a sound
It doesn't really matter 'cause there ain't no one around
Tiptoe through the alley and tiptoe through your life
You still got it coming be it gun, be it knife

Next thing you know
You're eating hospital food

Karaoke castration, take the wasp alive
He's gonna sting you anyway and take you to the hive
Yesterday was suckin' and tomorrow's lookin' bad
Who knew that today was the only thing I had?

(What? What? I can hear you. I was, uh...)

Hospital food
Want some hospital food
Hospital food
Delicious hospital food

In your tribute album to the world you must never forget
To sing the one about the cat who's always gettin' wet
He's always got a problem, he's a very bitter dude
And now he's complaining 'bout his hospital food

Hospital food
It's gonna help the medicine go down
Want some hospital food
Gonna take a walk without a sound
A little hospital food
Helps the spoonful of sugar come up
I want some hospital food
In your blender and in my cup
Hospital food
Hospital food
Hospital food
Hospital food 




                  ~~~~~~~~~~~~~~~~~~~~~~~~~~~~~~~~~~~~




--------------------------------------------------------------------------------
                              Eels - Electro-Shock Blues
-------------------------------------------------------------------------------

Album : Electro-Shock Blues (1998)
Tempo : 70
E-mail: thibiat@yahoo.fr

You can find the guitar pro/powertab version here :
https://tabs.ultimate-guitar.com/e/eels/electro-shock_blues_power_tab.htm

A      x32010
Fmaj7  x33210


Riff (without capo !!)

e|---------|---------|
B|---------|---------|
G|----4----|---------|
D|-2-------|----2----|
A|---------|-4-------|
E|---------|---------|


With capo 4

RIFF1:

    A      Dmaj7
e>-0---3-----------|
B>-1------------1--|
G>-0--------2------|
D>----------3------|
A>-3--------3------|
E>-----------------|

RIFF2:

    A            Dmaj7
e>-0----7--10-7----------|
B>-1------------------1--|
G>-0 (let ring)---2------|
D>----------------3------|
A>-3--------------3------|
E>-----------------------|

RIFF1 x4

A      Dmaj7
feeling   scared today
A             Dmaj7
 write down i  am  ok
A                 Dmaj7               A    Dmaj7
  a hundred times    the doctors say
        A  Dmaj7         A  Dmaj7             A   Dmaj7
i am ok,         i am ok,         i'm not ok
A       Dmaj7
skin is  crawling off
A       Dmaj7
mopping   the sweaty drops
A               Dmaj7             A   Dmaj7
 sticking around   for this shit
             RIFF2               A   Dmaj7                 RIFF2
another day,         another day,          not another day

RIFF1  RIFF2   RIFF1 x2

A         Dmaj7
pink pill    feels good
A         Dmaj7
 finally  understood
A               Dmaj7           A   Dmaj7
take me in your warm   embrace
             A  Dmaj7           RIFF1 x2
i am trying,       i am trying




                  ~~~~~~~~~~~~~~~~~~~~~~~~~~~~~~~~~~~~



-------------------------------------------------------------------------------
                              Eels - Efils' God
-------------------------------------------------------------------------------

Album : Electro-Shock Blues (1998)
Tempo : 103
E-mail: gwendal.mollo@orange.fr
Tabbed by: newg


Riff :
    G        A            G      A
e|----------------------------------------------------|
B|----------------------------------------------------|
G|---0-------------2----------------------------------|
D|-2--2-0-2---0-2--2-0-2--0-2-0---0----0--------------|
A|----------------------------------4----4--4-2-4-----|
E|----------------------------------------------------|

Riff x6

G                    A
  Efils good and the time is right
G                          A
  I'll bundle up and slip away
    G                      A
The count is down and the drip is up
G                         A
  It's time to split this hunk of clay

Riff x2

              G                          A
  Now you can bring my suitcase, But you can't bring me
            D                              A
And you can have all the money, 'cause you say that you must
           G                             A
But if you think that it matters, Take a look at me
    G                          A
And don't close your eyes as i turn into dust


Riff x2

    "Efils good"

B F# E        A              B        F# 
        Don't tell me that I can't do this
E   A      B    F#     E              A             
 As if you knew,   But you don't know
B   F#    E           
How efils good 

Riff x2

B F# E A x8



                  ~~~~~~~~~~~~~~~~~~~~~~~~~~~~~~~~~~~~



-------------------------------------------------------------------------------
                              Eels - Going to Your Funeral Part II
-------------------------------------------------------------------------------

Album : Electro-Shock Blues (1998)
Tempo : 100
E-mail: gwendal.mollo@orange.fr
Tabbed by: newg

No lyrics

E |-----3-----------|-----6-----5-----|--3-----------------|------1-----------|
B |------------3----|--------6--------|---------5---3------|------------------|
G |--5------5-------|-----------------|-----5--------------|---3------2-------|
D |-----------------|-----------------|--------------------|------------------|
A |-----------------|-----------------|--------------------|------------------|
E |-----------------|-----------------|--------------------|------------------|






                  ~~~~~~~~~~~~~~~~~~~~~~~~~~~~~~~~~~~~






-------------------------------------------------------------------------------
                              Eels - Last Stop This Town
-------------------------------------------------------------------------------

Album : Electro-Shock Blues (1998)
Tempo : 105
Tabbed by: Upnorth97

You can find the guitar pro/powertab version here :
https://tabs.ultimate-guitar.com/e/eels/last_stop_this_town_guitar_pro.htm


E B A Bx3

VERSE 1

E      B          A               B   
You're dead but the world keeps spinnin'
E        B             A            B 
Take a spin through the world you left
E              B        A         B
It's getting dark a little too early
E          B         A     B   
Are you missing the dearly bereft?

(E B A B)x2

VERSE 2

E        B              A                B
Taking flight, well you could be here tomorrow
E        B              A                 B 
Taking flight well you could get here tonight

PRE-CHORUS

E              B             A                  B
I'm gonna fly on down for the last stop to this town-what?
E              B                A            B
I'm gonna fly on down then fly away-well alright

CHORUS

E        B           A          B   
Get down get get get down get down
E        B           A          B
Get down get get get down get down

BRIDGE

E                                   B 
Takin' a spin through the neighborhood
      A                              B
The neighbors scream what you talkin' bout
E          B                A                B
'Cause they don't know how to let you in and I can't let you out

(E B A B)x2

VERSE 3

E             B             A               B
What if I was not your only friend in this world
E                           B             A           B             
Could you take me where you're going if you're never coming back

(E B A B)x2

PRE-CHORUS

E               B            A                  B
I'm gonna fly on down for the last stop to this town
E               B             A            B
I'm gonna fly on down then fly away on my way
(E B A B)x4


CHORUS

E        B          A          B   
Get down get get get down get down
E        B           A          B
Get down get get get down get down
E        B          A          B   
Get down get get get down get down
E        B           A          B
Get down get get get down get down

VERSE 4

E           B           A                      B   
Why don't we take a ride away up high in the neighborhood 
E                              A               B  
Up over the billboards and the factories and smoke

PRE-CHORUS

E               B            A                  B
I'm gonna fly on down for the last stop to this town-Yeah!
E               B             A            B
I'm gonna fly on down then fly away on my way

OUTRO

E B A B
    Fly away
E B A B
    Fly away
E        B           A          B   
Get down get get get down get down
E        B            A         B
Get down get get get down get down

(E B A B)x2 E




                  ~~~~~~~~~~~~~~~~~~~~~~~~~~~~~~~~~~~~




-------------------------------------------------------------------------------
                              Eels - Baby Genius
-------------------------------------------------------------------------------

Album : Electro-Shock Blues (1998)
Tempo : 185
E-mail: gwendal.mollo@orange.fr
Tabbed by: newg



{We having an earthquake?
That was enjoyable!
God bless you
Come on}
Baby genius
Look how you've grown
Where do you go from here?
Didn't we have some good times
After all is said and done?
Small body and small mind
Big head and big headaches

My back is broken
Baby genius
Find a new ride 


                  ~~~~~~~~~~~~~~~~~~~~~~~~~~~~~~~~~~~~





-------------------------------------------------------------------------------
                              Eels - Climbing To The Moon 
-------------------------------------------------------------------------------

Album : Electro-Shock Blues (1998)
Tempo : 70
E-mail: gwendal.mollo@orange.fr
Tabbed by: newg

You can find the guitar pro/powertab version here :
https://tabs.ultimate-guitar.com/e/eels/climbing_to_the_moon_guitar_pro.htm

Capo on 3rd fret


CHORDS :
F  133211
Bb 113331


C  G  C  G

C                      G
So I wrote it all in a letter
C                      G
But I don't know if it came
F                      C
The nurse she likes my writing
F                    C
So she keeps it just like me
        Bb            F
So that it won't get away

CHORUS

C       F              C
I won't be denied this time
        F            C
'Fore I go out of my mind
                    Am
Over matters got my foot on the ladder
    F            G         Em   Am   F  G
And I'm climbing up to the moon
C  G


C                         G
Got a sky that looks like heaven
C                            G
Got an earth that looks like shit
F                    C
It's getting hard to tell where
F
What I am ends
    C                   Bb   F
And what they're making me begins

CHORUS

BREAK

Em       Am
Saturday in the yard
F                 C
They'll bring you by
Em             Am
We'll lay down on the grass
          Bb                F  C  F  C  F  C  G  Am  F  G
And watch as the sky closes in

CHORUS

C       F              C
I won't be denied this time
        F            C
'Fore I go out of my mind
                    Am
Over matters got my foot on the ladder
    F            G         Em   Am   F  G
And I'm climbing up to the moon
         G         Em   Am  F  G
Climbing up to the moon

OUTRO

Em  Am  F  G (x3), end on C




                  ~~~~~~~~~~~~~~~~~~~~~~~~~~~~~~~~~~~~




-------------------------------------------------------------------------------
                              Eels - Ant Farm 
-------------------------------------------------------------------------------

Album : Electro-Shock Blues (1998)
Tempo : 133
Tabbed by: Dona88

C             G
Hate a lot of things
Bb               F
But I love a few things
Am          D       G
And you are one of them


C         G
Hard to believe
Bb                 F
After all of these years
Am          D      G
But you are one of them


                F
Walk down the street
        C
I'm thinking
G
Everybody move along
Riff        F             C
I've got a sad-hearted needing
     D  Dsus4  D
to belong


C       G
Nevertheless
Bb           F
It's all the mess you made
Am          D      G
But I can't let it go

C  G  Bb  F  Am  D  G

Riff           F
Walk down the street
     C
I'm thinking
G
Look at all the ants in the farm
Riff        F           C
I've got a sad-hearted feeling
   D
to harm

C             G
Hate a lot of things
Bb                F
But I love a few things
Am          D        G
And you are one of them

G F G F G F G F G   G C G




                  ~~~~~~~~~~~~~~~~~~~~~~~~~~~~~~~~~~~~




-------------------------------------------------------------------------------
                              Eels - Dead Of Winter
-------------------------------------------------------------------------------

Album : Electro-Shock Blues (1998)
Tempo : 120

You can find the guitar pro/powertab version here :
https://tabs.ultimate-guitar.com/e/eels/dead_of_winter_power_tab.htm

Capo 5 


G  D  C/G  Asus2

VERSE 1:
G               D                      C/G  Asus2
standing in the dark outside the house
G                D                    C/G  Asus2
breathing in the cold and sterile air
     C/G                Em
well i was thinking how it must feel
   Bm              Asus2
to see that little light
    C/G            Em
and watch it as it disappears
    Bm              D
and fades into  and fades into the night

VERSE 2:
G                D                 C/G  Asus2
so i know you're going pretty soon
G         D                           C/G  Asus2
radiation sore throat got your tongue
C/G           Em
magic markers tattoo you
    Bm               Asus2
and show it where to aim
    C/G                   Em
and strangers break their promises
    Bm                  D             C/G  G  C/G
you won't feel any  you wont feel any pain

BRIDGE:
        G                       C/G
and the streets are jammed with cars
G             D        Em          Asus2
rockin' their horns to race to the wire
       D* A*       C/G      C/G
of the un finished line

G  D  C/G  Asus2
G  D  C/G  Asus2

VERSE 3:
G                D                         C/G  Asus2
thought that i'd forget all about the past
G              D                   C/G  Asus2
but it doesn't let me run too fast
    C/G          Em
and i just wanna stand outside
    Bm                Asus2
and know that this is right
    C/G              Em
and this is true and i will not
Bm         D                  C/G  G  C/G
fade into  fade into the night
G                        C/G  G  C/G  G
i'm standing here in the dark

C/G  G  C/G  G 




                  ~~~~~~~~~~~~~~~~~~~~~~~~~~~~~~~~~~~~





------------------------------------------------------------------------------
                              Eels - Medication Is Wearing Off 
-------------------------------------------------------------------------------

Album : Electro-Shock Blues (1998)
Tempo : 73
E-mail: thibiat@yahoo.f

You can find the guitar pro/powertab version here :
https://tabs.ultimate-guitar.com/e/eels/medication_is_wearing_off_power_tab.htm

D    xx0232
A    x02220
G2   3x0032
F#m  244222



INTRO:

   Variations on those 3 notes   ...then the same for

e>-----10----------------------------------------9---12---------|
B>--10---------...etc------------------------10----------...etc-|
G>---------7------------------------------9---------------------|
D>--------------------------------------------------------------|
A>--------------------------------------------------------------|
E>--------------------------------------------------------------|

enter the lead notes :
       D                      A
e>-------------2---------------------3-------------------7--|
B>------------------------------2---------------------------|
G>--------2-------------------------------------------------|    x4
D>---0---------------------0--------------------------------|
A>----------------------------------------------------------|
E>----------------------------------------------------------|

D                           A
 see this watch she gave me,  well it still ticks away
D                              A
 the days im claiming back for me
RIFF1*
 tu lu tu tu tu tu tu tu tu lu
D                           A
 the medication's wearing off gonna hurt not a little, a lot
D                                  A
 keep on ticking you're not lickin me

RIFF1
 lu lu lu tu tu tu tu tu tu lu    x2


OUTRO:

RIFF2*

G2
 step on a crack break your mothers heart
F#m
 red light green light, black
G2
 suicide e-mail do not delete,
F#m
 plug it back in the jack
G2
 start to be what they want you to be,
F#m                                RIFF2
 and i see yourself as they see you

G     F#m
D     A

D                        A
 sunrise on the corner of sunset and alverado
   RIFF1
i think what the hell do i do now
D                      A
 watch the day disintergrate
                          G2 (RIFF2)
so i can stay up late and wait

       G2  F#m   x3
       D   A

D                           A
 see this watch she gave me,  well it still ticks away
RIFF1
 tu lu tu tu tu tu tu lu tu lu
RIFF1
  G2   F#m x2
RIFF2 to fade...

*
RIFF1 :
     D                                A
e>--2--2--2--2----2---0------------0--0--0--0--0--0--0--0---|
B>--3--3--3--3------------3---2----0--2--2--2--2--2--2--2---|
G>--2--2--2--2--2---2---2---2---2--2--2--2--2--2--2--2--2---|
D>--0--0--0--0--0---0---0---0---0--2--2--2--2--2--2--2--2---|
A>---------------------------------0--0--0--0--0--0--0--0---|
E>----------------------------------------------------------|


RIFF2:
      G2                            F#m
e>--2--2--2--2----0---------------2--2--2--2--2--2--2--2-----|
B>--3--3--3--3--------3---2-------2--2--2--2--2--2--2--2-----|
G>--0--0--0--0--0---0---0---0-----2--2--2--2--2--2--2--2-----|
D>--0--0--0--0--0---0---0---0-----4--4--4--4--4--4--4--4-----|
A>--x--x--x--x--x---x---x---x-----4--4--4--4--4--4--4--4-----|
E>--3--3--3--3--3---3---3---3-----2--2--2--2--2--2--2--2-----|




                  ~~~~~~~~~~~~~~~~~~~~~~~~~~~~~~~~~~~~




----------------------------------------------------------------------------------------------------
                                  Eels - P.S. You rock my world
----------------------------------------------------------------------------------------------------

Album : Electro Shock Blues (1998)
Tempo : 80
E-mail: gwendal.mollo@orange.fr
Tabbed by: newg

See my live version on the site, E use a capo on 3. 

You can find the guitar pro/powertab version here :
https://tabs.ultimate-guitar.com/e/eels/ps_you_rock_my_world_power_tab.htm

Capo 1

D/F# : 20023x

G D/F# x4

G      D/F#         G          D/F#
 I was at a funeral  the day i realized
G             D/F#               A
  I wanted to spend my life with you
G              D/F#        G            D/F#
  Sitting down on the steps  at the old post office
G              D/F#           A
  The flag was flying at half mast
          D
And i was thinking about how
A             D
  Everyone is dying
A                 D       G     D Em D
  And maybe it is time to live

  G                      D     Em D
I don't know where we're going
  G                      D     Em D
I don't know what we'll do


G                 D/F#         
 Walked in to the thrif-tee
G                    D/F#
Saw the man with the hollow eyes
G          D/F#           A
Who didn't give me all my change
G               D/F#           G          
  But it didn't bother me this time
         D/F#           G        D/F#
'cause i know i've only got This moment
         A
And it's good
              D 
I went to the gas station
A          D
 Old woman honked her horn
A            D             G     D Em D
 Waiting for me to fix her car

  G                      D      Em D
I don't know where we're going
  G                      D      Em D
I don't know what we'll do


G           D                 Em 
  Laying in bed tonight i was thinking
    D                    G    
And listening to all the dogs
        D/F#           A
And the sirens and the shots
          D
And how a careful man tries
A             D
 To dodge the bullets
A        D                 G     D Em D
 While a happy man takes a walk
G                D       Em   D
 And maybe it is time to live

G D Em D x6 
Fade out

Suggest correction
Creating personal tab
Creating personal tab
You can edit any tab online and save it as your Personal.

You can edit, replace or remove any tab part or add personal notes – all changes will be seen only by you.

Personal tabs can be accessed anytime from any device, even offline.
Learn more »
Give kudos to tab author, rate the tab!
1 2 3 4 5
comments
print report bad tab
guest
You may want to rate the tab now too:
select rating
Wanna post a correction for this tab? Suggest correction