Oops, an error
Loading. Please wait.

Kinda Fuzzy chords

by Eels
97 views 1 this week
no commentswrite comment
1 2 3 4 5
3 more votes to show rating
add to favorites
×
Save as Personal and add changes to this tab that will be seen only by you. Learn more ›
×
You can save this tab as Personal to edit and correct it or add notes. All changes will be seen only by you. Learn more »
launch autoscroll
font size
0
reset
transpose
0
reset
simplify chords
display chords
guitar tuner
edit
Autoscroll
slow
fast
+/-
esc
set tempo
stop
Author
Difficulty
newg [tm] 49,829
intermediate
Strumming
There is no strumming pattern for this song yet. and get +5 IQ
-------------------------------------------------------------------------------
                             Eels - Kinda Fuzzy
-------------------------------------------------------------------------------

Album : Wonderful Glorious (2013)
Tempo : 120
E-mail: gwendal.mollo@orange.fr
Tabbed by: newg 

 Riff :
e|-------------------------------------------------|
B|-------------------------------------------------|
G|--------3--2-------2--0--------------------------|
D|------------------------------4--3---------------|
A|--3--3----------3----------3----------3--6-------|
E|-------------------------------------------------|

Intro :

    E5        E5     G           B5 
e|----------------|---------------------|
B|----------------|---------------------|
G|----------------|--------------4--4---|
D|--2--2-x----2---|--0---0--x-x--4--4---|
A|--2--2-x----2---|--2---2--x-x--2--2---|
E|--0--0-x----0---|--3---3--------------| x2


E5          E5      G              B5 
  In my heart there lives a little riddle
  I'm always trying to find my way
  Everything feels older in the morning
  I'll find an answer some day



                      [Riff]                       [Riff]
But I'm feeling kinda fuzzy,   But you know I'm alright
                  [Riff]                      [Riff]
I'm feeling kinda fuzzy, But the Sun's shining bright
Don't mess with me I'm up for the fight

E5       E5      G             B5 
  It's a tangled cobweb that I weave
  The dusty room of an aching mind
  Anything that keeps the Sun rising
  I got to see if I can find

                      [Riff]                       [Riff]
But I'm feeling kinda fuzzy,   But you know I'm alright
                  [Riff]                      [Riff]
I'm feeling kinda fuzzy, But the future looks bright 
Don't mess with me I'm up for the fight

Am G x4

Am                         G
   Riding through like an outlaw drifter
Am                     G
   Never knowing which way to turn
Am                 G
   In the moment I think I've got it
Am              G
   It's gone

 Break :
e|-------------------|-------------------|
B|-------------------|-------------------|
G|----------------1--|-------------------|
D|--3-3-3-3-3-1-3----|--3-3-3-3-3-1-3----|
A|-------------------|----------------2--|
E|-------------------|-------------------|

Fm                                  G#m
Pull the curtains open wide, Got to know that I'm about it
Fm                                       B5
   Good God It's another day, Don't ever doubt it

[Riff]                     [Riff] 
     You know I'm alright,       I'm feeling kinda fuzzy

E5       E5      G             B5 
  In my heart there lives a little riddle
  I'm always trying to find my way

Bm   Bm                                Am
       I don't know what it's going to take man
Am                          Bm
       I only need a little break man
Bm                                     Am       Am
       I know that you know that I'm a good man

                      [Riff]                       [Riff]
But I'm feeling kinda fuzzy,   But you know I'm alright
                  [Riff]                      [Riff]
I'm feeling kinda fuzzy, But the Sun's shining bright
Don't mess with me I'm up for the fight

Bm    Bm  Am        Am
Yeah      Yeah  Yeah    x2

Bm Bm Am Am x3
Bm

            
            
Suggest correction
Creating personal tab
Creating personal tab
You can edit any tab online and save it as your Personal.

You can edit, replace or remove any tab part or add personal notes – all changes will be seen only by you.

Personal tabs can be accessed anytime from any device, even offline.
Learn more »
Give kudos to tab author, rate the tab!
1 2 3 4 5
comments
print report bad tab
guest
You may want to rate the tab now too:
select rating
Wanna post a correction for this tab? Suggest correction