Oops, an error
Loading. Please wait.

Mental bass

version 1
version 1

Whole song

Interactive

by Eels
894 views 1 this week
no commentswrite comment
1 2 3 4 5
x 3
add to favorites
×
Save as Personal and add changes to this tab that will be seen only by you. Learn more ›
×
You can save this tab as Personal to edit and correct it or add notes. All changes will be seen only by you. Learn more »
launch autoscroll
font size
0
reset
guitar tuner
edit
Autoscroll
slow
fast
+/-
esc
set tempo
stop
Author
Song: Mental
Artist: Eels
Album: Beautiful Freak
Tabbed by: Mac (Mac1st3@gmail.com)

Drop D on tuning

Verse
G       [------------------------------------------------------]
D       [------12-12-15-12---12-15-12--------------------------]
A       [------------------------------12-12-15-12---12-15-12--] x6 
D       [------------------------------------------------------]

Verse part 2
G       [------------------------------------------------------]
D       [------------------------------------------------------]
A       [------10-10-13-10---10-13-10--12-12-15-12---12-15-12--]
D       [------------------------------------------------------]

Pre Chorus
G       [-----------------------------]
D       [-----------------------------]
A       [-----0-0-0-0-0-0-0-0-0-------]
D       [-----------------------------]

Chorus 1
G       [---------------------------------------]
D       [-----0-0-3-0-0-0-3-0-------------------]
A       [---------------------0-0-3-0-0-0-3-0---]
D       [---------------------------------------]

Chorus 2
G       [---------------------------------------]
D       [---------------------------------------]
A       [----------3--1--0----0-0-0-0-0-0-0-0---]
D       [-----5-5-------------------------------]

Post Chorus 1
G       [--------------------4-5---------]
D       [--------------2-1-0-------------]
A       [---0-1--2--3--------------------]
D       [--------------------------------]

Post Chorus 2
G       [------------------------4-5-----]
D       [--------------------------------]
A       [--------------2-1-0-----2-3-----]
D       [---0-1--2--3--------------------]

Solo
G       [------------------------------------------------------]
D       [------------------------------------------------------]
A       [-----------------------0-0-3-0-0-0-3-0----------------]
D       [-------0-0-3-0-0-0-3-0--------------------------------]

Solo cont
G       [------------------------------------------------------]
D       [------------------------------------------------------]
A       [-----------------------0-0-3-0-12-12-12-12------------]
D       [-------0-0-3-0-0-0-3-0--------------------------------]

Solo cont
G       [------------------------------------------------------]
D       [------------------------------------------------------]
A       [-----------------------0-0-3-0-0-0-3-0----------------]
D       [-------0-0-3-0-0-0-3-0--------------------------------]

Solo End
G       [------------------------------------------------------]
D       [------------------------------------------------------]
A       [-----------------------0-0-0-0-0-0-0-0----------------]
D       [-------0-0-3-0-0-0-3-0--------------------------------]

Verse
Chorus
Chorus 2 and repeat

That's the general line of it, I'll let you sort out the order of it all, but its pretty 
forward.
Enjoy

any comments feel free to mail me

            
            
Suggest correction
Creating personal tab
Creating personal tab
You can edit any tab online and save it as your Personal.

You can edit, replace or remove any tab part or add personal notes – all changes will be seen only by you.

Personal tabs can be accessed anytime from any device, even offline.
Learn more »
Give kudos to tab author, rate the tab!
1 2 3 4 5
comments
print report bad tab
guest
You may want to rate the tab now too:
select rating
Wanna post a correction for this tab? Suggest correction