Oops, an error
Loading. Please wait.

Mr Es Beautiful Blues bass

version 1
version 1

Whole song

Interactive

by Eels
5,677 views 21 this week
4 commentsread comments
1 2 3 4 5
x 8
add to favorites
×
Save as Personal and add changes to this tab that will be seen only by you. Learn more ›
×
You can save this tab as Personal to edit and correct it or add notes. All changes will be seen only by you. Learn more »
launch autoscroll
font size
0
reset
guitar tuner
edit
Autoscroll
slow
fast
+/-
esc
set tempo
stop
Song: Mr E's beautiful blues
Band: Eels
Album: Daisy's of the Galaxy
Tuning: E A D G
Tabbed:  Daniel (double_dcup_daniel@hotmail.com)
Comments:
All the other tabs for this are pretty crap (no offence zappp) so i quickly 
worked out this it is the main bass part and i'm pretty sure it just repeats 
the whole way through. Use a big deep bassy channel when you play it.

G[------------------------------------------]
D[--------------2---------4--------2--------]
A[-----2----3-3---3---5-5---5---3-3---3-----]
E[-3-3---3----------------------------------]

Any Suggestions, corrections or the rest of the song E-mail me.
Thanx
     Daniel 
Suggest correction
Creating personal tab
Creating personal tab
You can edit any tab online and save it as your Personal.

You can edit, replace or remove any tab part or add personal notes – all changes will be seen only by you.

Personal tabs can be accessed anytime from any device, even offline.
Learn more »
comments
print report bad tab
4 comments total. Showing first comments.
0 reply
disturbedfxcker 196 Aug 12, 2008 03:31 AM

perfect except for one note

that 4th note should be an open D

G[---------]
D[-------0-]
A[-----2---]
E[-3-3-----]

0 reply
basti1508 10 Mar 28, 2013 09:34 AM

i think it's in the song he Plays:

G[------------------------------------------]
D[--------------2---------4--------2--------]
A[-----2----3-3---3---5-5---5---3-3---3-----]
E[-3-3---3----------------------------------]

and then

G[------------------------------------------]
D[-------2-2-----4-------2------------------]
A[-----3-----5-5---5-3-3---3----------------]
E[-3-3--------------------------------------]

0 reply
basti1508 10 Mar 28, 2013 09:37 AM

sorry it is

G[------------------------------------------]
D[------------2-2-----4-------2-------------]
A[-----3---3------5-5---5-3-3---3-----------]
E[-3-3---3----------------------------------]

guest
You may want to rate the tab now too:
select rating
Wanna post a correction for this tab? Suggest correction