Oops, an error
Loading. Please wait.

My Descent Into Madness Chords

version 2
version 2

Whole song

by Eels
16 views 3 this week
no commentswrite comment
1 2 3 4 5
2 more votes to show rating
add to favorites
launch autoscroll
font size
0
reset
transpose
0
reset
display chords
guitar tuner
Autoscroll
slow
fast
+/-
esc
set tempo
stop
Help us to improve Ultimate-Guitar.com Take our survey!
×
Author
Difficulty
newg [tm] 45,832
novice
----------------------------------------------------------------------------------------------------
                           Eels - My Descent Into Madness
----------------------------------------------------------------------------------------------------

Album : Electro Shock Blues (1998)
Tempo : 86
E-mail: gwendal.mollo@orange.fr
Tabbed by: newg    (http://profile.ultimate-guitar.com/newg/)

Bass :
G|-------------------|--------------------|
D|--------5.-5.---5--|--------------------|
A|------5-------5----|-3-----2h3-3-2------|
E|-3-----------------|-----------------5--|

Violin Riff :
E|---------------------------------|
B|---------------------------------|
G|-----10-9-7-5-4--0--4h5-4-2-4-0--|
D|-10------------------------------|
A|---------------------------------|
E|---------------------------------|

Reed riff :
E|-----------------------------------|
B|-----------------------------------|
G|-------7--9---7--10-9-7-9----------|
D|--10-----------------------10------|
A|-----------------------------------|
E|-----------------------------------|


[Intro]
G            C
(only Bass)
G             C
 la la la la, la la la la

[Verse]
G                             C
 Springfield's looking pretty  dusty today
G                            C
 I see their dreams coming undone
G                               C
 The view from inside ward nine  affords this much
G                          C
 A town teeming with the unloved
A#           Am         D#              Dm       C#      (riff)
   Close the window and lock it so it's good and tight

[Chorus]
G             C
 la la la la, la la la la
G            C
 la la la la la

[Verse]
G                C
  Turning 18 and trying not to look too lost
G                    C   (riff)
  have a not so nice day
G                                 C
  the jacket makes me straight so i can just sit back and bake
G                           C
  you know i think im gonna stay
A#         Am            D#             Dm     C#      
   Talking very loud but no one hears a word i say

[Chorus] x2

[Verse] 
G                          C                                  
  Come visit me tonight at eight o' clock and then you'll see how 
G                 C   (Reed riff and violin riff)
I'm not the crazy one
G                         C     
  Voices tell me i am the shit

G  C (riff) x4

A#    Am          D#       Dm        C#      
   20 days go by, everyday looks the same, (same, same, same ...)

[Chorus] x2


[Outro]
G     C         G
         Im the shit

G  C (fade out)

Suggest correction
Give kudos to tab author, rate the tab!
1 2 3 4 5
comments
print report bad tab
guest
You may want to rate the tab now too:
select rating
Wanna post a correction for this tab? Suggest correction