Oops, an error
Loading. Please wait.

Novocaine For The Soul Tab

version 1
version 1

Live

Whole song

Interactive

by Eels
16 views 1 this week
no commentswrite comment
1 2 3 4 5
1 last vote to show rating
add to favorites
launch autoscroll
font size
0
reset
how to read this tab
guitar tuner
Autoscroll
slow
fast
+/-
esc
set tempo
stop
Help us to improve Ultimate-Guitar.com Take our survey!
×
Author
Capo
7th fret
#----------------------------------PLEASE NOTE--------------------------------#
#This file is the author's own work and represents their interpretation of the#
#song. You may only use this file for private study, scholarship, or research.#
#-----------------------------------------------------------------------------#

BAND: Eels
TITLE: Novocaine For The Soul (Live From Hell)
ALBUM: Useless Trinkets
TABBED BY: smashguy37@yahoo.com

CAPO 7

 VERSE RIFF
e |-----------------|-----------0-----|
B |-----0-----1-----|-----0-----------|
G |-------1-------2-|-------1-------2-|
D |---2-------------|---2-------------|
A |-2-------0-------|-2-------0-------|
E |-----------------|-----------------|
    1 & 2 & 3 & 4 &   1 & 2 & 3 & 4 &

 CHORUS
 "Before I sputter out..."                                    (pause)
e |-----------------|---------0-------|-----------------|-----------------|
B |-----3-----2-----|-----0-----0-----|-----3-----2-----|-----0-----------|
G |---2---2-----2---|---1---1-----1---|---2---2-----2---|---1---1---------|
D |-0-------------2-|-2-------------2-|-0-------------2-|-2---------------|
A |---------0-------|-----------------|---------0-------|-----------------|
E |-----------------|-----------------|-----------------|-----------------|
    1 & 2 & 3 & 4 &   1 & 2 & 3 & 4 &   1 & 2 & 3 & 4 &   1 & 2 & 3 & 4 &

BRIDGE
 "Guess who's living..."
E |-3---------------|-----------------|-----------------|-----------------|
B |-0---0-------3---|-----2-----0-----|-----0-------3---|-----2-----0-----|
G |-0-----3-------2-|---2---2-----1---|-------3-------2-|---2---2-----1---|
D |-0-------0-------|-2-------------2-|---------0-------|-2-------------2-|
A |-2---------------|---------2-------|-----------------|---------2-------|
E |-3---------------|-----------------|-3---------------|-----------------|
    1 & 2 & 3 & 4 &   1 & 2 & 3 & 4 &   1 & 2 & 3 & 4 &   1 & 2 & 3 & 4 &
3 & 4 &   1 & 2 & 3 & 4 &

   "Once again..."
e |-----------------|-----------------|
B |-----------------|-----------------|
G |-----------------|-----------------|
D |-----0-------0---|-----0-------0---|
A |---2---2---2---2-|---2---2---2---2-|
E |-3-------3-------|-3-------3-------|
    1 & 2 & 3 & 4 &   1 & 2 & 3 & 4 &
Suggest correction
Give kudos to tab author, rate the tab!
1 2 3 4 5
comments
print report bad tab
guest
You may want to rate the tab now too:
select rating
Wanna post a correction for this tab? Suggest correction