Oops, an error
Loading. Please wait.

Novocaine For The Soul Tab

version 3
version 3

Whole song

Interactive

46 views 1 this week
no commentswrite comment
1 2 3 4 5
3 more votes to show rating
add to favorites
launch autoscroll
font size
0
reset
how to read this tab
guitar tuner
×
Best way to learn
"Novocaine For The Soul"
Autoscroll
slow
fast
+/-
esc
set tempo
stop
Author
Difficulty
Capo
newg [tm] 47,409
  follow
intermediate
9th fret
About this tab version
Full tab, with capo 9, solo, celesta ... Was this info helpful? Yes No
-------------------------------------------------------------------------------
                              Eels - Novocaine For The Soul
-------------------------------------------------------------------------------
Album : Beautiful Freak (1996)
Tempo : 82
E-mail: gwendal.mollo@orange.fr
Tabbed by: newg

See my Guitar Pro/Powertab, Chord tab for more

Guitar Capo 9


[Intro]

Bass: (triplet fee)
     3      3      3      3      3      3      3     3
   / / /  / / /  / / /  / / /  / / /  / / /  / / /  / / /  
e|----------------------------------------------------------|
B|----------------------------------------------------------|
G|----------------------------------------------------------|
D|----------------------------------------------------------|
A|--3--3--3------3--3--3-------3---3--3---3--3---3--3-------|
E|----------------------------------------------------------|


Cello :
                                                  
e|----------------------------|----------------|----------------|
B|----------------------------|----------------|----------------|
G|----------------------------|----------------|----------------|
D|-----------------------4----|--5--4--1L------|--1-------------|
A|----------------------------|----------------|----------------|
E|-----------------------2----|--3--2----------|----------------|


[Verse 1] 0'31

   E           Am                E           Am                
e|-----------------0----------|-------------------------0-------|
B|--------0--------1----------|-----------0-------------1-------|
G|--------1--1-----2-----2----|-----------1----1--------2---2---|
D|-----2--------2-------------|------2------------0h-2----------|
A|--2-------------------------|--2------------------------------|
E|----------------------------|---------------------------------|

[Chorus 1]
   D           A                E
e|--------2--------0----------|----------------------------|
B|--------3--3-----2----------|--------0--0--0--------0----|
G|-----2-----------2-----2----|-----1--1--1--1--------1----|
D|--0-----------2-------------|--2--------------2--2-------|
A|----------------------------|--2-------------------------|
E|----------------------------|----------------------------|


   D           A                E            (Celesta)
e|--------2--------0----------|----------------------------|
B|--------3--3-----2----------|---------0------------------|
G|-----2-----------2-----2----|---------1--1---------------|
D|--0-----------2-------------|-----2----------------------|
A|----------------------------|--2-------------------------|
E|----------------------------|----------------------------|



[Verse 2]

   E           Am                E           Am                
e|-----------------0----------|-------------------------0-------|
B|--------0--------1----------|-----------0-------------1-------|
G|--------1--1-----2-----2----|-----------1----1--------2---2---|
D|-----2--------2-------------|------2------------0h-2----------|
A|--2-------------------------|--2------------------------------| 
E|----------------------------|---------------------------------| x3


[Chorus 2]
   D           A                E            Esus4
e|--------2--------0----------|--------0-------------------|
B|--------3--3-----2----------|--------0-----0-----0-------|
G|-----2-----------2-----2----|--------1-----2-----1-------|
D|--0-----------2-------------|-----2-----2----------------|
A|----------------------------|--2-------------------------|
E|----------------------------|----------------------------| x2

  D           A    
e|--------2--------0----------|----------------------------|
B|--------3--3-----2----------|----------------------------|
G|-----2-----------2-----2----|----------------------------|
D|--0-----------2-------------|----------------------------|
A|----------------------------|----------------------------|
E|----------------------------|----------------------------|



[Bridge]

     G           D                A           E
e|-----------------2----------|----------------------------|
B|--------0--------3----------|--------2--------0----------|
G|--------0--0-----2-----2----|--------2--2--------1-------|
D|-----0--------0-------------|-----2-----------------2----|
A|----------------------------|--0-----------2-------------|
E|--3-------------------------|----------------------------| x3


  G
e|----------------------------|----------------------------|
B|----------------------------|----------------------------|
G|----------------------------|----------------------------|
D|--------0-----------0-------|--------0-----------0-------|
A|-----2-----2-----2-----2----|-----2-----2-----2-----2----|
E|--3-----------3-------------|--3-----------3-------------|


[Solo]
   E           Am                            
e|-----------------0----------|
B|--------0--------1----------|
G|--------1--1-----2-----2----|
D|-----2--------2-------------|
A|--2-------------------------| 
E|----------------------------|  x4




[Verse 3]

   E           Am                E           Am                
e|-----------------0----------|-------------------------0-------|
B|--------0--------1----------|-----------0-------------1-------|
G|--------1--1-----2-----2----|-----------1----1--------2---2---|
D|-----2--------2-------------|------2------------0h-2----------|
A|--2-------------------------|--2------------------------------| 
E|----------------------------|---------------------------------| x2

"A Capella" 

[Final Chorus / Outro ]
   D           A                E           Esus4
e|--------2--------0----------|--------0-------------------|
B|--------3--3-----2----------|--------0-----0-----0-------|
G|-----2-----------2-----2----|--------1-----2-----1-------|
D|--0-----------2-------------|-----2-----2----------------|
A|----------------------------|--2-------------------------|
E|----------------------------|----------------------------| x7


Guitar solo :

e|----------------------------------------------------|
B|----------------------------------------------------|
G|--0-----0-----0-----0-------------------------------|
D|--0-----0-----0-----0L-0b----0L-0b----0L-0b---------|
A|--5b----5b----5b----5b-------5b---------------------|
E|----------------------------------------------------|


e|--3s-3--3--3--3--3--3--3----|--2--2--3--3--5--5--3--3----|-------|-------|
B|--3s-3--5--5--7--7--5--3----|--3--3--3--3--3--3--3--3----|--3L---|--3----|
G|----------------------------|----------------------------|-------|-------|
D|----------------------------|----------------------------|-------|-------|
A|----------------------------|----------------------------|-------|-------|
E|----------------------------|----------------------------|-------|-------|




Celesta : (guitar capo 9)

[Intro / Verse]

e|-----7-----7--8-------------|
B|--------9--------10----10---|
G|--9-----------------9-------|
D|--------------7.------------|
A|--7.------------------------|
E|----------------------------|


[Outro]
e|--10----12------------------|-------|
B|-----10----10-9-------------|--10---|
G|----------------------------|-------|
D|----------------------------|-------|
A|----------------------------|-------|
E|----------------------------|-------|

Suggest correction
Give kudos to tab author, rate the tab!
1 2 3 4 5
comments
print report bad tab
guest
You may want to rate the tab now too:
select rating
Wanna post a correction for this tab? Suggest correction