Oops, an error
Loading. Please wait.

Souljacker album chords

by Eels
382 views 18 this week
no commentswrite comment
1 2 3 4 5
2 more votes to show rating
add to favorites
×
Save as Personal and add changes to this tab that will be seen only by you. Learn more ›
×
You can save this tab as Personal to edit and correct it or add notes. All changes will be seen only by you. Learn more »
launch autoscroll
font size
0
reset
transpose
0
reset
simplify chords
display chords
guitar tuner
edit
Autoscroll
slow
fast
+/-
esc
set tempo
stop
Author
Difficulty
newg [tm] 49,630
intermediate
Strumming
There is no strumming pattern for this song yet. and get +5 IQ
~~~~~~~~~~~~~~~~~~~~~~~~~~~~~~~~~~~~~~~~~~~~~~~~~~~~~~~~~~~~~~~~~~~~~~~~~~~~~~~~~~~~~~~~~~~
|                                                                                         |
|    *****************                                                                    |
|   *      Eels       *                                                                   |
|    *****************                                                                    |         
|                                                                                         |
|                                                                                         |
|                    Souljacker    (2001)                                                 |
|                 ---------------                                                         |
|                                                                                         |
|                                                                                         |
|                                                                                         |
| E-mail: gwendal.mollo@orange.fr                                                         |
| Tabbed by: newg    (http://profile.ultimate-guitar.com/newg/)                           |
|                                                                                         |
|                                                                                         |
~~~~~~~~~~~~~~~~~~~~~~~~~~~~~~~~~~~~~~~~~~~~~~~~~~~~~~~~~~~~~~~~~~~~~~~~~~~~~~~~~~~~~~~~~~~

Tracklist :

    Dog Faced Boy 
    That's Not Really Funny
    Fresh Feeling 
    Woman Driving, Man Sleeping
    Souljacker part I 
    Friendly Ghost 
    Teenage Witch 
    Bus Stop Boxer 
    Jungle Telegraph
    World of Shit 
    Souljacker part II
    What Is This Note? 










-------------------------------------------------------------------------------
                             Eels - Dog Faced Boy
-------------------------------------------------------------------------------

Album : Souljacker (2001)
Tempo : 118
E-mail: gwendal.mollo@orange.fr
Tabbed by: newg

You can find my guitar pro/powertab version here :
https://tabs.ultimate-guitar.com/e/eels/dog_faced_boy_guitar_pro.htm

Tuning: down 1/2 step 

Intro                 Main riff
D#|----------------||---------------------------|---------------------------|
A#|----------------||---------------------------|---------------------------|
F#|----------------||o--------------------------|--------------------------o|
C#|----------------||o--------------------------|--------------------------o|
G#|----------------||---------------------------|---------------------------|
D#|-----0--3.-5.---||-6b----5--0--3.-3.----0L---|--0L----------0--0--3.-5.--|

   Riff 2
D#|----------------------------|
A#|----------------------------|
F#|----------------------------|
C#|----------------------------|
G#|----------------------------|
D#|--0-----2-----3--2--0--5----|

Riff x4


Coming home from the school today
Crying all along the way
Ain't no way for a boy to be
Begging ma to shave me please

You little punks think you own this town
Well someday someone's gonna bring you down
Life ain't pretty for a dog faced boy

You take back what you said now
That's the last time i cry
You don't know what it is to be a friend now
'til i walk beside you on the street now

B                   A 
Ma won't shave me, Jesus can't save me
Riff 2
Dog faced boy

Life ain't pretty for a dog faced boy x4

Going back to the school tomorrow
Hang my hairy head in sorrow
Ain't no way for a boy to be
Ain't no way to set me free now

B                   A 
Ma won't shave me, Jesus can't save me
Riff 2
Dog faced boy

Outro :
Repeat the riff with one octave up


                  ~~~~~~~~~~~~~~~~~~~~~~~~~~~~~~~~~~~~




-------------------------------------------------------------------------------
                             Eels - That's Not Really Funny
-------------------------------------------------------------------------------

Album : Souljacker (2001)
Tempo : 167
E-mail: gwendal.mollo@orange.fr
Tabbed by: newg


 Intro :                       Riff
e|-------------------|      e|-----------------------------|
B|-------------------|      B|-----------------------------|
G|-------------------|      G|--2--1-----------------------|
D|-------------------|      D|--------5-4--2---------------|
A|-----7-------7-----|      A|-----------------------------|
E|--5----5--6-----6--|      E|----------------0-2-0-3-0-4--


 Riff A                                  Riff C
e|-------------------------------|    |--------------------------------|    
B|-------------------------------|    |--1--1--1-1-1-------------------|      
G|--2--2--2-2-2------------------|    |--0--0--0-0-0-------------------|    
D|--2--2--2-2-2------------------|    |--2--2--2-2-2-------------------|    
A|--0--0--0-0-0--2---------------|    |--3--3--3-3-3-------------------|    
E|---------------0--0-2-0-3-0-4--|    |---------------0--0-2-0-3-0-4-- |  

 Verse
e|--------------------|
B|--------------------| Play this when it's say [Verse]
G|--------------------|
D|---7---5---4---5----|  
A|--------------------|
E|--------------------|

    ***************************************

Intro Bass Riff  x4

[Riff] x4


[Verse]
Did you think that i would laugh, When you said i was small?
Did you think that that would pass, As if nothing at all?
You say a lot of funny things, my little bunny
And i almost always laugh, But that's not really funny  

[Riff] x4

[Verse]
You play the little bells and tell a good story
You bake delicious pie and that's enough for me
But i am big i am your man, And you're my little honey
And i like what you have to say, But that's not really funny

[Riff A] x2 
[Riff C] x2
[Riff A] x2 
[Riff C] x2


[Verse]
You must not continue to emasculate me
The neighbor children through the window Clearly see
  [A cappela]
The little boy will wipe his nose because it's runny
Then point at me and laugh But that's not really funny 

[Verse] x1

[Riff A] x2 
[Riff C] x2
[Riff A] x2 
[Riff C] x2



                  ~~~~~~~~~~~~~~~~~~~~~~~~~~~~~~~~~~~~




-------------------------------------------------------------------------------
                             Eels - Fresh Feeling
-------------------------------------------------------------------------------

Album : Souljacker (2001)
Tempo : 95
E-mail: gwendal.mollo@orange.fr
Tabbed by: newg

You can find my guitar pro/powertab version here :
https://tabs.ultimate-guitar.com/e/eels/fresh_feeling_guitar_pro.htm

[Intro]
  E                      A/C#                 E                    A
G|--------------------|--------------------|--------------------|------------------------|
D|--------------------|--------------------|--------------------|------------------------|
A|--------------------|--------------------|--------------------|------------------------|
E|--0.-0---0-0.-0---0-|--5.-5---5-5.-5---5-|--4.-4---4-4.-4---4-|--5.-5---5-5.-5----7.-7-|

[Verse]
E                A/C#              E                  A
you don't have a clue,  what it is like to be next to you
E                A/C#             E                A
i'm here to tell you,  that it is good, that it is true
 
[Chorus]
E               A/C#  A            E
birds singing a song, old paint is peeling
E            A       
this is that fresh, that fresh feeling
E                   A/C#  A             E
words can't be that strong, my heart is reeling
             A
this is that fresh, that fresh feeling

[Verse]
E              A/C#              E                 A
try, try to forget what's in the past, tomorrow is here
E            A/C#          E                                A
love, orange sky above lighting your way there's nothing to fear


[Chorus]
E               A/C#  A            E
birds singing a song, old paint is peeling
E            A       
this is that fresh, that fresh feeling
E                   A/C#  A             E
words can't be that strong, my heart is reeling
             A
this is that fresh, that fresh feeling

[Instrumental]
Bass Riff
E A/C# E A

[Verse]
E               A/C#               E                    A
some people are good, babe in the 'hood, so pure and so free
E                A/C#             E                A
i'd make a safe bet, you're gonna get whatever you need

[Chorus]
E               A/C#  A            E
birds singing a song, old paint is peeling
E            A       
this is that fresh, that fresh feeling
E                   A/C#  A             E
words can't be that strong, my heart is reeling
             A
this is that fresh, that fresh feeling



                  ~~~~~~~~~~~~~~~~~~~~~~~~~~~~~~~~~~~~



-------------------------------------------------------------------------------
                       Eels - Woman Driving, Man Sleeping
-------------------------------------------------------------------------------

Album : Souljacker (2001) 
Tempo : 78
E-mail: gwendal.mollo@orange.fr
Tabbed by: newg

(There are no capo, but you can add one in 2, transpose -2 : Em7=Dm7 G=F...)

Em7 : 022003
G   : 320033 or 320003
C   : x32013 or x32010
D/F#: 2x023x 

[Intro]
Em7 G x4

[Verse]
Em7     G                Em7   G 
  Woman driving, man sleeping
Em7      G               Em7   G 
  With a suitcase on the rack
A
White lines shooting by
       C
On the pavement like the sky
Em7               G             Em7   G 
Looking straight ahead into the black

[Verse]
Em7     G                Em7   G 
  Woman driving, man sleeping
Em7          G        Em7   G 
  There's no radio to play
A
Sitting with the map
       C
Laying crumpled on her lap
Em7             G             Em7   G 
Looking for the toll money to pay

[Chorus]
D               C
Man sleeping is man dreaming
D/F#        C
In a large apartment house
D           C           D
Walking and knocking on doors

Em7 G x2

Solo 1 :
        Em7 G x4
        A C 
        Em7 G x2

[Verse]
Em7     G                     Em7   G 
  Woman driving and  man sleeping
Em7       G             Em7   G 
  Passing all the other cars
A
Searching in the black
          C
But never turning to look back
  Em7          G             Em7   G 
A little metal box under the stars

[Chorus]
D               C
Man sleeping is man dreaming
D/F#        C
In a large apartment house
D           C           D
Walking and knocking on doors


Em7 G x2

Em7     G                Em7   G 
  Woman driving, man sleeping      x2

Solo 2 :
        Em7 G x12 Fade out
        

**************************************************************************************
Solo 1
e|----------------|-------------|----------------|-----|------------|
B|----------------|-------------|----------------|-----|--8b--------|
G|----------------|-------------|----------------|-----|--0----7----|
D|---9-----7\5----|---9----7\5--|-4h5--/7------9\|-5---|----------9-|
A|----------------|-------------|----------------|-----|------------|
E|----------------|-------------|----------------|-----|------------|
                                                                              

Solo 2 
-------------|
-------------|
-------------|
--9b-----7\5-|
-------------|
-------------| till the end






                  ~~~~~~~~~~~~~~~~~~~~~~~~~~~~~~~~~~~~




-------------------------------------------------------------------------------
                          Eels - Souljacker part I
-------------------------------------------------------------------------------

Album : Souljacker (2001)
Tempo : 200
E-mail: gwendal.mollo@orange.fr
Tabbed by: newg

You can find the guitar pro/powertab version here :
https://tabs.ultimate-guitar.com/e/eels/souljacker_guitar_pro.htm

Riff :
e|----------------------------|----------------------------|
B|----------------------------|----------------------------|
G|----------------------------|----------------------------|
D|----------------------------|----------------------------|
A|----------------------------|----------------------------|
E|--0-----0--0--2-----3--0----|-----0-----0--2-----3--0----|

Riff 2 :
e|----------------------------|----------------------------|
B|----------------------------|----------------------------|
G|----------------------------|----------------------------|
D|----------------------------|----------------------------|
A|--0-----0-----2-----3--0L---|--0-----0--0--2-----3-------|
E|----------------------------|----------------------------|


[Intro]
Riff x12

[Verse]
Riff
22 miles of hard road
33 years of tough luck
44 skulls buried in the ground
Crawling down through the muck


Riff x8
Aw yeah

[Verse]
Riff
Johnny don't like the teacher
Johnny don't like the school
One day johnny gonna do something
Show 'em he's nobody's fool


Riff x4

[Verse]
Riff 2
Sisters' brothers make better lovers
Family affair down under the covers
Riff
Trailer park of broken hearts
Won't let you leave until you're bleeding

Riff x4

[Verse]
Riff
Sally don't like her daddy
Sally don't like her friends
Sally and johnny watching tv 
Waiting for it to end

Riff x8
Aw yeah

....

[Verse]
Riff 2
Sisters' brothers make better lovers
Family affair down under the covers
Riff
Trailer park of broken hearts
Won't let you leave until you're bleeding, Rock !

[Verse]
Riff
22 miles of hard road
33 years of tough luck
44 skulls buried in the ground
Crawling down through the muck
   E     (let ring)
Aw yeah





                  ~~~~~~~~~~~~~~~~~~~~~~~~~~~~~~~~~~~~



-------------------------------------------------------------------------------
                             Eels - Friendly Ghost
-------------------------------------------------------------------------------

Album : Souljacker (2001)
Tempo : 133
E-mail: gwendal.mollo@orange.fr
Tabbed by: newg

[Intro]
G F C D7 x2

[Verse]
G                   F
If you're scared to die you better
C                D7
not be scared to live
G                 F              
Ive been spending all my days
C                D7
Giving all i can give
F                  G 
Last night i heard someone walking
F                  G
Through my bedroom door
    F                     D7          G 
But what they wanted, i'm not exactly sure

[Chorus]
F             C     D7          G
   A freindly ghost    is all i need 
F             C     D7          G
   A freindly ghost    is all i need 

[Verse]
G                   F
Marking time on a broken watch
C                      D7
Counting days 'til the old pawn shop
G                   F
Sells me back my saxophone
C                     D7
Then everyone's gonna leave me alone
F                     G 
Two times i thought i heard someone
F               G 
Knocking on the glass
  F                     D7          G 
I hid my head and prayed that it would pass

[Chorus]
F             C     D7          G
   A freindly ghost    is all i need 
F             C     D7          G
   A freindly ghost    is all i need 

F C  D7  G x2

[Verse]
G                   F
If you're scared to die you better
C                D7
not be scared to live
G                    F              
I've been carrying 'round a grudge
C                 D7
Think i better forgive
F                      G 
Last night i heard footsteps walking
F            G 
On the attic floor
  F                  D7      G 
I got up and i opened up the door

[Chorus]
F             C     D7          G
   A freindly ghost    is all i need 
F             C     D7          G
   A freindly ghost    is all i need 

Play the Chorus and the first verse on the same time

[Outro]
G F C D7 x2 
Fade...


                  ~~~~~~~~~~~~~~~~~~~~~~~~~~~~~~~~~~~~






-------------------------------------------------------------------------------
                             Eels - Teenage Witch
-------------------------------------------------------------------------------

Album : Souljacker (2001)
Tempo : 129
E-mail: gwendal.mollo@orange.fr
Tabbed by: newg

   F# A 
e|-------------------------| 
B|-------------------------| 
G|-------------------------| 
D|-7-7-7/4--4-4--2/4--4----|
A|-7-7-7/4--4-4--2/4--4----|
E|-5-5-5/2--2-2--0/2--2----| 


F# A 

Look at downtown
Sunrise of sam
Bring it on down now
I'm in a jam
Where did you find such a rocking vest?
Said get away kid
You've become a pest

Pre-Chorus :
Heaven can't help a teenage witch
From sinking deeper down into the ditch

Chorus : 
F#              A                G#m                C#m
    Silky gown,   Pink and brown,     Shut you down 
And shut you up

Little lizard legs and little lizard tails
Always taste better when you're sitting in jail
Still i don't think that i can resist
After all the turds that i had to kiss

[Pre-Chorus] x4

F# A G#m C#m

F# A 

Keeping arms length from the long arm law
Going to the bank for a fifty dollar draw
Gonna find the place where the werewolves hang
Knockin' on the door for a fifty dollar bang

[Chorus]

[Pre-Chorus] x4




                  ~~~~~~~~~~~~~~~~~~~~~~~~~~~~~~~~~~~~




-------------------------------------------------------------------------------
                             Eels - Bus Stop Boxer
-------------------------------------------------------------------------------

Album : Souljacker (2001)
Tempo : 120
E-mail: gwendal.mollo@orange.fr
Tabbed by: newg

You can find my guitar pro/powertab version here :
https://tabs.ultimate-guitar.com/e/eels/bus_stop_boxer_guitar_pro.htm

[Intro]
Dm A C G  
Dm A C G 
Dm A Asus2 C G   
 
[Verse]
Dm                   A
I don't miss where I came from
C                               G
   But each night I dream about being back home
Dm                       A
   When I wake up in the morning
C                             G
   I'm too tired and tired of being alone
Dm                   A
  So I get up and go downtown
C                          G
  And pick me out a little piece of ground where I
Dm                            A
   Can proof something to the world
C                     G
I can proof something to the world


[Chorus]
Dm            A                    C       G
Don't look at me, I'm the bus stop boxer  
Dm            A                    C       G
Don't look at me, I'm the bus stop boxer  

Dm A C G x2

[Verse]
Dm             A
  Daddy put us in the truck and
C                    G
  Dropped us off and said good luck then
Dm              A
  One lucky kid waiting for the bus
C                      G
  Made a winner out of one of us

[Chorus]
Dm            A                    C       G
Don't look at me, I'm the bus stop boxer  
Dm            A                    C       G
Don't look at me, I'm the bus stop boxer  

Dm A C G x2

[Verse]
Dm                  A
  Going down to the railroad tracks where
C                       G
  People know that they better not relax
Dm                 A
  I'm the man baby I am the man
C                     G
  This is where I can make you understand

[Chorus]
Dm            A                    C       G
Don't look at me, I'm the bus stop boxer  
Dm            A                    C       G
Don't look at me, I'm the bus stop boxer
Dm            A                    C       G
Don't look at me, I'm the bus stop boxer  
Dm            A                    C       G
Don't look at me, I'm the bus stop boxer    

[Outro]
Dm A C G x2


                  ~~~~~~~~~~~~~~~~~~~~~~~~~~~~~~~~~~~~




-------------------------------------------------------------------------------
                             Eels - Jungle Telegraph 
-------------------------------------------------------------------------------

Album : Souljacker (2001)
Tempo : 105
E-mail: gwendal.mollo@orange.fr
Tabbed by: newg

Only find this riff
                                  Break
e|------------------------|      |------------------------|--------------|
B|------------------------|      |------------------------|--------------|
G|------------------------|      |---3------4--3----------|-----------4--|
D|------------------------|      |------------------------|--------6-----|
A|------------------------|      |------1-----------------|--------------|
E|--3-4-4--4--4-4--4-4----|      |------------------------|--4--4--------|

Mama had an epideral 
Hoping i would be a girl
The night was black
The sky was booming
Darker clouds were surely looming
I heard screaming
Doctor shouts
And baby then i came out

And here i am

Found my way down the street
Chicken hawk's favorite meat
The man was big
The gun was loaded
He had cash but never showed it
I heard screaming
Bleeding throat
And baby i got on the boat

And here i am

Now i'm up here in the trees
Shakin' off the bugs and fleas
The days are long
The sun is beating
Each day i don't die is cheating
Send me some lovin'
Send me some lovin'
Send it now



                  ~~~~~~~~~~~~~~~~~~~~~~~~~~~~~~~~~~~~




-------------------------------------------------------------------------------
                             Eels - World of Shit
-------------------------------------------------------------------------------

Album : Souljacker (2001)
Tempo : 88
Tabbed by:  samuel

|G    |Cm6 Cm |G    |Cm6 Cm |G    |Cm6 Cm |Cm6 Cm |F  Cm |(Repeat)


G                      Cm6   Cm
  In This World Of Shit,

G                Cm6   Cm
  Baby You Are It,

G                     Cm6          Cm
  A Little Light That Shines All Over,

  Cm6       Cm
  Must Take Over And,

  F       Cm         G
  See Us Through The Night.


Daddy was a troubled genius
Mama was a real good egg
Why don't we just get together
For whatever
And see if it's alright

I spent so many days
Just staring at the haze
And i think that that's a book
That i don't have to write again

Now when i rise i shine
I've got you on my mind
And the question isn't if
The question is merely when

Baby, i confess
I am quite a mess
So let's get married and
Make some people
More than equal
In this world of shit

I will make a pledge
To get down off the ledge
You and i belong together
And forever we will have
Our love 

e|--7----5--3--|
B|--8----4-----|
G|--7----5-----|
D|--9----5-----|
A|-10----------|
E|-------------|

And over it a piano plays

e|-----19-17-15-------17-|
B|--15----------15-15----|
G|-----------------------|
D|-----------------------|
A|-----------------------|
E|-----------------------|

And Then


e|--7--5--3--5-----5--3--|
B|--8--4-----4-----6--4--|
G|--7--5-----5-----5--5--|
D|--9--------------------|
A|-10--------------------|
E|-----------------------|


e|-----19-17-15----17-18-17-15-17-18-17-15----17-18-17-15----|
B|--15----------15-------------------------15-------------15-|
G|-----------------------------------------------------------|
D|-----------------------------------------------------------|
A|-----------------------------------------------------------|
E|-----------------------------------------------------------|




                  ~~~~~~~~~~~~~~~~~~~~~~~~~~~~~~~~~~~~




-------------------------------------------------------------------------------
                             Eels - Souljacker part II
-------------------------------------------------------------------------------

Album : Souljacker (2001)
Tempo : 89
Tabbed by:  Jonathan (jgt85@hotmail.com    

[Intro]     
                                                                              
E||---0---------------------|-----0-----------------||--0------------3--------|
B||--------3--1----------1--|--3-------3--1---------||-------3--1-------5-----|
G||*--0------------0--2-----|-----0----------------*||--0------------------4--|
D||*------------------------|----------------------*||------------------------|
A||-------------------------|-----------------------||------------------------|
E||-------------------------|-----------------------||------------------------|

                                                                          
--5----------8---------7--|-------------5--------3--|----0---------------|
-----6----------10--------|----10--8-------6--------|-------1------------|
--------5-----------9-----|-------------------5-----|--------------------|
--------------------------|-------------------------|--------------------|
--------------------------|-------------------------|--------------------|
--------------------------|-------------------------|--------------------|

--0---------------------|-----0----------------|
-------3--1----------1--|--3-------3--1--------|
--0------------0--2-----|-----0----------------|
------------------------|----------------------| etc
------------------------|----------------------|
------------------------|----------------------|

[Verse]
C                F      C
Souljacker can't get my soul
C                   F        C
Ate my carcass in a black manhole
C                F      Em
Souljacker can't get my soul
       Am       Em         F      C
He can shoot me up full of bullet holes
        C                F      C
But the souljacker can't get my soul

[Instrumental]
C F C 
C F C
C F Em
Am Em F C
C F C


[Verse]
C                F      C
Souljacker can't get my soul
C                        F         C
Left my carcass with the worms and moles
C                F     Em
Souljacker can't get my soul
       Am      Em            F       C
He can hang my neck from the old flagpole
        C                F      C
But the souljacker can't get my soul

C F C  Fade...




                  ~~~~~~~~~~~~~~~~~~~~~~~~~~~~~~~~~~~~




-------------------------------------------------------------------------------
                             Eels - What Is This Note?
-------------------------------------------------------------------------------

Album : Souljacker (2001)
Tempo : 120
E-mail: gwendal.mollo@orange.fr
Tabbed by: newg

You can find the guitar pro/powertab version here :
https://tabs.ultimate-guitar.com/e/eels/what_is_this_note_guitar_pro.htm

Chords : 
Intro :            Verse :
F5  133xxx         d5  x577xx
C5  355xxx         F5  x.8.10.10.x.x.x
G5  355xxx         G5  x.10.12.12.x.x


What Is This Note?

F5 C5 G5
 
D5
The sun kisses the morning dew
F5
Just the way that i'm kissing you
    G5
The birds are tweeting in sweet harmony
D5
Teaching the free world how to be free

The day is new and a good one too
How can i prove my love to you
I wanna give you everything
Me and the birds
Now we're gonna sing

When i wake up to your beautiful smile
Sometimes it takes me a little while
To realize that i am awake
And that living today will be
A piece of cake

And i won't keep you for myself
No you're not a toy on my shelf
The world needs to know that you're here
So spread your wings and fly, my dear

The day is new and a good one too
How can i prove my love to you
I wanna give you everything
Me and the birds
Now we're gonna sing 




                
Suggest correction
Creating personal tab
Creating personal tab
You can edit any tab online and save it as your Personal.

You can edit, replace or remove any tab part or add personal notes – all changes will be seen only by you.

Personal tabs can be accessed anytime from any device, even offline.
Learn more »
Give kudos to tab author, rate the tab!
1 2 3 4 5
comments
print report bad tab
guest
You may want to rate the tab now too:
select rating
Wanna post a correction for this tab? Suggest correction