Oops, an error
Loading. Please wait.

Thats Not Really Funny chords

version 1
version 1

Whole song

Interactive

by Eels
37 views 6 this week
no commentswrite comment
1 2 3 4 5
3 more votes to show rating
add to favorites
×
Save as Personal and add changes to this tab that will be seen only by you. Learn more ›
×
You can save this tab as Personal to edit and correct it or add notes. All changes will be seen only by you. Learn more »
launch autoscroll
font size
0
reset
transpose
0
reset
display chords
guitar tuner
edit
Autoscroll
slow
fast
+/-
esc
set tempo
stop
Strumming
There is no strumming pattern for this song yet. and get +5 IQ
-------------------------------------------------------------------------------
                             Eels - That's Not Really Funny
-------------------------------------------------------------------------------

Album : Souljacker (2001)
Tempo : 167
E-mail: gwendal.mollo@orange.fr
Tabbed by: newg


 Intro :                       Riff
e|-------------------|      e|-----------------------------|
B|-------------------|      B|-----------------------------|
G|-------------------|      G|--2--1-----------------------|
D|-------------------|      D|--------5-4--2---------------|
A|-----7-------7-----|      A|-----------------------------|
E|--5----5--6-----6--|      E|----------------0-2-0-3-0-4--


 Riff A                                  Riff C
e|-------------------------------|    |--------------------------------|
B|-------------------------------|    |--1--1--1-1-1-------------------|
G|--2--2--2-2-2------------------|    |--0--0--0-0-0-------------------|
D|--2--2--2-2-2------------------|    |--2--2--2-2-2-------------------|
A|--0--0--0-0-0--2---------------|    |--3--3--3-3-3-------------------|
E|---------------0--0-2-0-3-0-4--|    |---------------0--0-2-0-3-0-4-- |

 Verse
e|--------------------|
B|--------------------| Play this when it's say [Verse]
G|--------------------|
D|---7---5---4---5----|
A|--------------------|
E|--------------------|

    ***************************************

Intro Bass Riff  x4

[Riff] x4


[Verse]
Did you think that i would laugh, When you said i was small?
Did you think that that would pass, As if nothing at all?
You say a lot of funny things, my little bunny
And i almost always laugh, But that's not really funny

[Riff] x4

[Verse]
You play the little bells and tell a good story
You bake delicious pie and that's enough for me
But i am big i am your man, And you're my little honey
And i like what you have to say, But that's not really funny

[Riff A] x2
[Riff C] x2
[Riff A] x2
[Riff C] x2


[Verse]
You must not continue to emasculate me
The neighbor children through the window Clearly see
  [A cappela]
The little boy will wipe his nose because it's runny
Then point at me and laugh But that's not really funny

[Verse] x1

[Riff A] x2
[Riff C] x2
[Riff A] x2
[Riff C] x2

            
            
Suggest correction
Creating personal tab
Creating personal tab
You can edit any tab online and save it as your Personal.

You can edit, replace or remove any tab part or add personal notes – all changes will be seen only by you.

Personal tabs can be accessed anytime from any device, even offline.
Learn more »
Give kudos to tab author, rate the tab!
1 2 3 4 5
comments
print report bad tab
guest
You may want to rate the tab now too:
select rating
Wanna post a correction for this tab? Suggest correction