Oops, an error
Loading. Please wait.

Nuestro Momento bass

117 views 1 this week
no commentswrite comment
1 2 3 4 5
3 more votes to show rating
add to favorites
×
Save as Personal and add changes to this tab that will be seen only by you. Learn more ›
×
You can save this tab as Personal to edit and correct it or add notes. All changes will be seen only by you. Learn more »
launch autoscroll
font size
0
reset
guitar tuner
edit
Autoscroll
slow
fast
+/-
esc
set tempo
stop
MIL INTENTOS POR VERME CAER!

Has fracasado no puedes comprender
G: ---------------------------------------------------------------|
D: ---------------------------------------------------------------|
A: -5-3-----------------------------------------------------------|
D: -----3-5-5-5-5-5-5-5-6-6-6-6-6---------------------------------|

la lucha siempre a sido real, me ilumina en esta oscuridad.
Sigo erguido sigo de pie, sigo orgulloso sigo con fe.
Yo pongo las reglas soy el capataz, tu eres basura debes escucha…

G: ---------------------------------------------------------------|
D: ---------------------------------------------------------------|
A: ---------------------5-3---------------------------------------|
D: -0-0-0—-0-0-0--0-0-0-----3-5-5-5-5-5-5-5-6-6-6-6-6-------------| X3

Corte:

…aaaaaar!

G: -------------------------------------------------------------------|
D: -------------------------------------------------------------------|
A: -------------------------------------------------------------------|
D: -0-0—0-0-----------------------------------------------------------|

G: ----------------------------------------------------------------------|
D: ----------------------------------------------------------------------|
A: ----------------------------------------------------------------------|
D: -0-—0-0-0—-0-0—3-5—0-6—0-5--------------------------------------------| X4

Escucha bien cuando te hable.
Solo el tiempo dictamino.
Cual es la diferencia.


G: -----------------------------------------------------------------------|
D: -----------------------------------------------------------------------|
A: -----------------------------------------------------------------------|
D: -0-—0-0-0—-0-0—3-5—0-6—0-5-0-------------------------------------------| X3

Entre tú y yo…
G: --------------------------------------------------------------------|
D: --------------------------------------------------------------------|
A: --------------------------------------------------------------------|
D: -0-—0-0-0—-0-0—3--5—-0--6—-0—5---0----------------------------------|.


No habrá lugar!!

Donde refugiarse, el miedo podrás sentir
huirás como un cobarde cuando me veas venir
es el, es el, ES EL MOMENTO!


G: -----------------------------------------------------------------|
D: -----------------------------------------------------------------|
A: -6-5--5-5-5-5—--6-5—5-5-5-5---6-5—5-5-5-5-------6-6-6------------|
D: ------------------------------------------3-3-3------------------|

Este es, Este es. Este es, NUESTRO MOMENTO!

G: ---------------------------------------------------------------------|
D: ---------------------------------------------------------------------|
A: -6-5--5-5-5-5—--6-5—5-5-5-5---6-5—5-5-5-5-------6-6-6—-5-5--3-5------|
D: ------------------------------------------3-3-3----------------------|

            
            
Suggest correction
Creating personal tab
Creating personal tab
You can edit any tab online and save it as your Personal.

You can edit, replace or remove any tab part or add personal notes – all changes will be seen only by you.

Personal tabs can be accessed anytime from any device, even offline.
Learn more »
Give kudos to tab author, rate the tab!
1 2 3 4 5
comments
print report bad tab
guest
You may want to rate the tab now too:
select rating
Wanna post a correction for this tab? Suggest correction